Oops, an error
Loading. Please wait.

Make A Move Bass Tab

version 1
version 1

Whole song

4,739 views 9 this week
6 commentsread comments
1 2 3 4 5
excellent!
x 1
add to favorites
launch autoscroll
font size
0
reset
guitar tuner
Tab Pro tools
  • play this tab
  • loop segment
  • change instrument
  • show fretboard
  • metronome
Autoscroll
slow
fast
+/-
esc
set tempo
stop
Contributor
Difficulty
Tuning
novice
C# G# C# F# A# D#
Original Contributor: TommyNL
New Contributor: Teh D Bot
Original Song At Bottom


Intro 0:05
F#|-----------------------------------------------------------------|
C#|-----------------------------------------------------------------|
G#|-----------------------------------------------------------------|
C#|-5-5-5-5-5-5---5---5-------------5-5-5-5-5-5---5---5-------------|
    1 + 2 + 3 + 4 + 1 + 2 + 3 + 4 + 1 + 2 + 3 + 4 + 1 + 2 + 3 + 4 +

Rest

Verse 0:21
F#|-------------------------------------------------------------------------|
C#|-------------------------------------------------------------------------|
G#|-------------------------------------------------------------------------|
C#|-0--0--0-5---5---5---5---5---5---5---5---5---5---5---5---5---5---5---5---|
    Triplet 1 + 2 + 3 + 4 + 1 + 2 + 3 + 4 + 1 + 2 + 3 + 4 + 1 + 2 + 3 + 4 +

F#|-----------------------------------------------------------------|
C#|-----------------------------------------------------------------|
G#|-----------------------------------------------------------------|
C#|-1---1---1---1---1---1---1---1-----------------------------------|
    1 + 2 + 3 + 4 + 1 + 2 + 3 + 4 + 1 + 2 + 3 + 4 + 1 + 2 + 3 + 4 +

Pre Chorus 0:33
F#|-------------5-5-5---------------|
C#|-5-5-5-8-8-8-------8-8-8---------|
G#|---------------------------------|
C#|---------------------------------|
    1 + 2 + 3 + 4 + 1 + 2 + 3 + 4 + 

Chorus 0:36
F#|-----------------------------------------------------------------|
C#|---------------------------------3-------------------------------|
G#|-----------------1---1---1-1-1-----------------------------------|
C#|-5---5---5-5-5-----------------------3---3-3-3---1---1---3-------|
    1 + 2 + 3 + 4 + 1 + 2 + 3 + 4 + 1 + 2 + 3 + 4 + 1 + 2 + 3 + 4 +

F#|-----------------------------------------------------------------|
C#|-----------------------------------------------------------------|
G#|-----------------1---1---1-1-1-----------------------------------|
C#|-5---5---5-5-5-------------------3-3-3-1-3-3-1-0-3-3-3-1---------|
    1 + 2 + 3 + 4 + 1 + 2 + 3 + 4 + 1 + 2 + 3 + 4 + 1 + 2 + 3 + 4 +

0:48
F#|-----------------------------------------------------------------|
C#|-----------------------------------------------------------------|
G#|-----------------1-1-1-1-1-1-1-------------------6-6-6-6-6-6-6---|
C#|-5-5-5-5-5-5-5-------------------3---3---3---3-------------------|
    1 + 2 + 3 + 4 + 1 + 2 + 3 + 4 + 1 + 2 + 3 + 4 + 1 + 2 + 3 + 4 +

F#|-----------------------------------------------------------------|
C#|-5-5-5-5-5-5-5---------------------------------------------------|
G#|-----------------1-1-1-1-1-1-1-1---------------------------------|
C#|---------------------------------3-3-3-3-3-3-3-3-1-1-1-1---------|
    1 + 2 + 3 + 4 + 1 + 2 + 3 + 4 + 1 + 2 + 3 + 4 + 1 + 2 + 3 + 4 +

Verse 0:58
F#|-----------------------------------------------------------------|
C#|-----------------------------------------------------------------|
G#|-----------------------------------------------------------------|
C#|---------------------------------5---5---5---5---5---5---5---5---|
    1 + 2 + 3 + 4 + 1 + 2 + 3 + 4 + 1 + 2 + 3 + 4 + 1 + 2 + 3 + 4 +

F#|-----------------------------------------------------------------|
C#|-----------------------------------------------------------------|
G#|-----------------------------------------------------------------|
C#|-1---1---1---1---1---1---1---1---1---1---1---1---1---1-----------|
    1 + 2 + 3 + 4 + 1 + 2 + 3 + 4 + 1 + 2 + 3 + 4 + 1 + 2 + 3 + 4 +

1:11
F#|-----------------------------------------------------------------|
C#|-----------------------------------------------------------------|
G#|-----------------------------------------------------------------|
C#|-55555-----5---555---------------55555-----5---555-------0--0--0-|
    1 + 2 + 3 + 4 + 1 + 2 + 3 + 4 + 1 + 2 + 3 + 4 + 1 + 2 + Triplet

F#|-----------------------------------------------------------------|
C#|-----------------------------------------------------------------|
G#|-------------------------------------------------6-6-6-6-6-5-3-1-|
C#|-11111-----1---111---------------1-1-1-1-1-1-1-/-----------------|
    1 + 2 + 3 + 4 + 1 + 2 + 3 + 4 + 1 + 2 + 3 + 4 + 1 + 2 + 3 + 4 +

Pre Chorus 
F#|---------------------------------|
C#|---------------------------------|
G#|-------------------------1-3-1---|
C#|-------------------------------5-|
    1 + 2 + 3 + 4 + 1 + 2 + 3 + 4 + 

Chorus 1:25
F#|-----------------------------------------------------------------|
C#|---------------------------------3-------------------------------|
G#|-----------------1---1---1-1-1-----------------------------------|
C#|-5---5---5-5-5-----------------------3---3-3-3---1---1---3-------|
    1 + 2 + 3 + 4 + 1 + 2 + 3 + 4 + 1 + 2 + 3 + 4 + 1 + 2 + 3 + 4 +

F#|-----------------------------------------------------------------|
C#|-----------------------------------------------------------------|
G#|-----------------1---1---1-1-1-----------------------------------|
C#|-5---5---5-5-5-------------------3-3-3-1-3-3-1-0-3-3-3-1---------|
    1 + 2 + 3 + 4 + 1 + 2 + 3 + 4 + 1 + 2 + 3 + 4 + 1 + 2 + 3 + 4 +

1:37
F#|-----------------------------------------------------------------|
C#|-----------------------------------------------------------------|
G#|-----------------1-1-1-1-1-1-1-------------------6-6-6-6-6-6-6---|
C#|-5-5-5-5-5-5-5-------------------3-3-3-3-3-3-3-------------------|
    1 + 2 + 3 + 4 + 1 + 2 + 3 + 4 + 1 + 2 + 3 + 4 + 1 + 2 + 3 + 4 +

F#|-----------------------------------------------------------------|
C#|-5-5-5-5-5-5-5---------------------------------------------------|
G#|-----------------1-1-1-1-1-1-1-1---------------------------------|
C#|---------------------------------3-3-3-3-3-3-3-3-1-1-1-1---------|
    1 + 2 + 3 + 4 + 1 + 2 + 3 + 4 + 1 + 2 + 3 + 4 + 1 + 2 + 3 + 4 +

Bridge 1:49
F#|-----------------------------------------------------------------|
C#|-----------------------------------------------------------------|
G#|-------------------------------------------------3--3--3-3-------|
C#|-0--0--0-0-------1--1--1-1-------3--3--3-3-----------------------|
    Triplet 3 + 4 + Triplet 3 + 4 + Triplet 3 + 4 + Triplet 3 + 4 +

F#|-----------------------------------------------------------------|
C#|-----------------------------------------------------------------|
G#|-----------------------------------------------------------------|
C#|-0--0--0-0-------1--1--1-1-------3--3--3-3-------4-4-4-4-------5-|
    Triplet 3 + 4 + Triplet 3 + 4 + Triplet 3 + 4 + 1 + 2 + 3 + 4 +

F#|-----------------------------------------------------------------|
C#|-----------------------------------------------------------------|
G#|-----------------------------------------------------------------|
C#|---5-5-5-5---5---5-------------5---5-5-5-5---5---5-------0--0--1-|
    1 + 2 + 3 + 4 + 1 + 2 + 3 + 4 + 1 + 2 + 3 + 4 + 1 + 2 + Triplet 

F#|-----------------------------------------------------------------|
C#|-----------------------------------------------------------------|
G#|-----------------------------------------------------------------|
C#|---1-1-1-1---1---1-------------1---1-1-1-1---1---1-------0-0-0-0-|
    1 + 2 + 3 + 4 + 1 + 2 + 3 + 4 + 1 + 2 + 3 + 4 + 1 + 2 + 3 + 4 + 

Interlude 2:12 
F#|-----------------------------------------------------------------|
C#|-----------------------------------------------------------------|
G#|-------------------------------------------------1---------------|
C#|-5-------------------------------r-------------------------------|
    1 + 2 + 3 + 4 + 1 + 2 + 3 + 4 + 1 + 2 + 3 + 4 + 1 + 2 + 3 + 4 +

F#|-------------------------------------------------------------------------------------------------|
C#|-------------------------------------------------------------------------------------------------|
G#|-------------------------------------------------1-1-1-------------------------------------------|
C#|-3---------------1---1---3---3---5-5-5---------------------------3-3-3-1-3-3-1-0-3-3-3-1---------|
    1 + 2 + 3 + 4 + 1 + 2 + 3 + 4 + 1 + 2 + 3 + 4 + 1 + 2 + 3 + 4 + 1 + 2 + 3 + 4 + 1 + 2 + 3 + 4 +

Chorus 2:26
F#|-----------------------------------------------------------------|
C#|-----------------------------------------------------------------|
G#|-----------------1-1-1-1-1-1-1-1---------------------------------|
C#|-5-5-5-5-5-5-5-5-----------------3-3-3-3-3-3-3-3-1-1-1-1-3-3-3---|
    1 + 2 + 3 + 4 + 1 + 2 + 3 + 4 + 1 + 2 + 3 + 4 + 1 + 2 + 3 + 4 +

F#|-----------------------------------------------------------------|
C#|-----------------------------------------------------------------|
G#|-----------------1-1-1-1-1-1-1-1---------------------------------|
C#|-5-5-5-5-5-5-5-5-----------------3-3-3-1-3-3-1-0-3-3-3-3---------|
    1 + 2 + 3 + 4 + 1 + 2 + 3 + 4 + 1 + 2 + 3 + 4 + 1 + 2 + 3 + 4 +

2:38
F#|-----------------------------------------------------------------|
C#|-----------------------------------------------------------------|
G#|-----------------1-1-1-1-1-1-1-------------------6-6-6-6-6-6-6---|
C#|-5-5-5-5-5-5-5-------------------3-3-3-3-3-3-3-------------------|
    1 + 2 + 3 + 4 + 1 + 2 + 3 + 4 + 1 + 2 + 3 + 4 + 1 + 2 + 3 + 4 +

F#|-----------------------------------------------------------------|
C#|-5-5-5-5-5-5-5---------------------------------------------------|
G#|-----------------1-1-1-1-1-1-1-1---------------------------------|
C#|---------------------------------3---3---3---3---1---1-----------|
    1 + 2 + 3 + 4 + 1 + 2 + 3 + 4 + 1 + 2 + 3 + 4 + 1 + 2 + 3 + 4 +

2:50
F#|------------------------------------------------------------------|
C#|-5---5--/17-5-5-5-8-8-8-8-8-8-8-----------------------------------|
G#|----------------------------------8-8-8-8---8---8-6-6-6-----6-----|
C#|------------------------------------------------------------------|
    1 + 2 + 3  + 4 + 1 + 2 + 3 + 4 + 1 + 2 + 3 + 4 + 1 + 2 + 3 + 4 +

F#|-----------------------------------------------------------------|
C#|-----------------------------------------------------------------|
G#|-----------------1---1---1-1-1-1---------------------------------|
C#|-5---5---5-5-5-5-----------------3---3---3-3-3-3-1-1-1-----------|
    1 + 2 + 3 + 4 + 1 + 2 + 3 + 4 + 1 + 2 + 3 + 4 + 1 + 2 + 3 + 4 +
Tabbed by Dave Vucko

=================================================================================

Hey,

This is my very first tab so please comment/rate and let me know what you think.
I play on a 5 string but per request I can re-wright this to drop-D (in which it is 
originally played)

INTRO 0:04 - 0:10 (Somebody make a move....)
G|---------------------|
D|---------------------|
A|---------------------|
E|-222-2-2---222-2-2---|
B|---------------------|

REST 0:10-0:21 (Test my reality.....)
G|---------------------|
D|---------------------|
A|---------------------|
E|---------------------|
B|---------------------|

VERSE 0:21-0:32 (Everyone started out a little insane....)
G|-------------------------------------------------------------------|
D|-------------------------------------------------------------------|
A|-------------------------------------------------------------------|
E|---2-2-2-2-2-2-2-2-2-2-2-2-2-2-2-2---------------------------------|
B|33---------------------------------3-3-3-3-3-3-3-3-3-3-3-3-3-3-3-3-|

REST 0:32-0:34 (So under that skin of yours: a heart attack)
G|---------------------|
D|---------------------|
A|---------------------|
E|---------------------|
B|---------------------|

PRE-CHORUS 0:34-0:37
G|---------------------|
D|---------------------|
A|---------------------|
E|-222-555-777-555-----|
B|---------------------|


CHORUS-A 0:37-0:48 ('Cause everybody's so scared....)
G|----------------------------------------|
D|----------------------------------------|
A|----------------------------------------|
E|-2222-5555-0000---00-2222-5555-00000000-|
B|----------------33----------------------|

CHORUS-B 0:48-1:00 (Somebody make a move.....)
G|----------------------------------------|
D|----------------------------------------|
A|----------------------------------------|
E|-2222-5555-0000------2222-5555-0000-----|
B|----------------3333---------------3~---|

REST 1:00-1:03 (And if I had the answers I'd have written them out)
G|---------------------|
D|---------------------|
A|---------------------|
E|---------------------|
B|---------------------|

VERSE 1:03-1:11 (So I could tell you what to do and what this thing is about....)
G|---------------------------------------------|
D|---------------------------------------------|
A|---------------------------------------------|
E|-2-2-2-2-2-2-2-2-----------------------------|
B|-----------------3-3-3-3-3-3-3-3-3-3-3-3-3-3-|

VERSE 1:11-1:23 (You and I; we share the same disease.....)
G|---------------------------------------------|
D|---------------------------------------------|
A|---------------------------------------------|
E|--222-2-2----222-2-2--00----------------777--|
B|------------------------333-3-3---333333-----|

PRE -CHORUS 1:23-6
G|---------------------|
D|---------------------|
A|---------------------|
E|-222-555-777-555-----|
B|---------------------|

CHORUS-A 1:26-1:37 ('Cause everybody's so scared....)
G|-----------------------------------------|
D|-----------------------------------------|
A|-----------------------------------------|
E|-2222-5555-0000---00-2222-5555-00000000~-|
B|----------------33-----------------------|

CHORUS-B 1:37-1:49 (Somebody make a move.....)
G|-----------------------------------------|
D|-----------------------------------------|
A|-----------------------------------------|
E|-2222-5555-0000------2222-5555-0000------|
B|----------------3333---------------3~----|

BRIDGE 1:49-2:01 (Pointing my fingers the problems still linger)
G|----------------------------------------------|
D|----------------------------------------------|
A|----------------------------------------------|
E|-2222~-5555~-7777~-9999--2222~-5555~-7777~-9~-|
B|----------------------------------------------|

BRIDGE2 2:01-2:14 (Somebody make a move....)
G|----------------------------------------------|
D|----------------------------------------------|
A|----------------------------------------------|
E|-222-2-2----222-2-2--00--------------------2~-|
B|-----------------------333-3-3--333-3-3--3----|

CHORUS2-A 2:14 - 2:20 ('Cause everybody's so scared....)
G|---------------------|
D|---------------------|
A|---------------------|
E|---------------------|
B|---------------------|

CHORUS2-B  -  2:21-2:27--| (Screaming in the dark while we just play our part...)
G|-----------------------|
D|-----------------------|
A|-----------------------|
E|-22-55-00000000--------|
B|-----------------------|

CHORUS-A 2:27-2:38 ('Cause everybody's so scared....)
G|-----------------------------------------|
D|-----------------------------------------|
A|-----------------------------------------|
E|-2222-5555-0000---00-2222-5555-00000000~-|
B|----------------33-----------------------|

CHORUS-B 2:38-2:49 (Somebody make a move.....)
G|-----------------------------------------|
D|-----------------------------------------|
A|-----------------------------------------|
E|-2222-5555-0000------2222-5555-0000------|
B|----------------3333---------------3~----|

CHORUS-B 2:49-3:03 (Somebody make a move.....)
G|-----------------------------------------|
D|-----------------------------------------|
A|-----------------------------------------|
E|-2222-5555-0000------2222-5555-0000------|
B|----------------3333---------------3-----|
comments
We did not receive enough feedback on this tab! Please rate:
print report bad tab
1 2 3 4 5
6 comments total. Showing first comments.
+2 reply
OrderlyToaster wrote on March 30 2012, 06:16 pm

could you write it in drop-d please?

0 reply
bassmanfochirst wrote on May 12 2012, 08:24 pm

Yeah if u could do it in 4 drop d that would help alot please and thx :)

0 reply
hystericlee wrote on September 15 2012, 12:01 pm

I'm with the others, drop d tabs would be awesome :D

I want to post or [tab]
guest
You may want to rate the tab now too:
select rating
Please do not post tabs as comments. Select "correction" instead!