Oops, an error
Loading. Please wait.

Make A Move Tab

version 1
version 1

Whole song

Video

16,006 views 21 this week
3 commentsread comments
1 2 3 4 5
x 3
add to favorites
launch autoscroll
font size
0
reset
how to read this tab
guitar tuner
Autoscroll
slow
fast
+/-
esc
set tempo
stop
Help us to improve Ultimate-Guitar.com Take our survey!
×
Difficulty
Tuning
intermediate
E A D G B E
http://www.myspace.com/iconforhire
----------------------------------------------------------------------------
                                          Icon for hire - Make a move
----------------------------------------------------------------------------

Tabed by Dmitry Burmistrow 
smartttzone@gmailcom

This is my first tab, so its not pretty accurate
Bridge is missing yet because i was rung late and got no much time
And as you see its only one guitar
I will try to finish this tab later on my free time 
Hope you guys enjoy it :)

PM - Palm Muted
//-slide
tr-tremolo
x/xx  - muted
tuning - drop C


D--(into (0:05 - 0:10 )--------------------------|
A------------------------------------------------|
F------------------------------------------------|
C------6---------6---6-------6---------6---6--6--|
G------6---------6---6-------6---------6---6--6--|
C------6---6-6-6-6---6---6---6---6-6-6-6---6--6--|
         pm-----|        Tr    pm-----|


-(intro 2 0:11 - 0:22 not sure about this)---------------------------|
---------------------------------------------------------------------|
---------------------------------------------------------------------|
--6-6-6-6-6-6-6-6-6-6-6-6-6-6-6-6-2-2-2-2-2-2-2-2-2-2-2-2-2-2-2-2-2--|
--------------------------------------------------------------2-2-2--|
--------------------------------------------------------------2-2-2--|
pm----------------------------------------------------------------|


--(verse 0:23 - 0:30)--------------------------------------------|
-----------------------------------------------------------------|
-----------------------------------------------------------------|
-----------------------------------------------------------------|
-----------------------------------------------------------------|
--6-6-6-6-6-6-6-6-6-6-6-6-6-6-6-6-2-2-2-2-2-2-2-2-2-2-2-2-2------|
pm---------------------------------------------------------|



--(Pre Chorus 0:34 - 0:36)----------------------|
------------------------------------------------|
------------------------------------------------|
--6-6-6-//9-9-9//11-11-11//9-9-9----------------|
--x-x-x-//x-x-x//xx-xx-xx//x-x-x----------------|
--6-6-6-//9-9-9//11-11-11//9-9-9----------------|



--(Chorus 0:37 - 0:58)----------------------------------------------->
--------------------------------------------------------------------->
--------------------------------------------------------------------->
---6-6-6-6-6-6-6-6-9-9-9-9-9-9-9-9-9-4-4-4-4-4-4-4-4-2-2-2-2-2-2-4-4->
---6-6-6-6-6-6-6-6-9-9-9-9-9-9-9-9-9-4-4-4-4-4-4-4-4-2-2-2-2-2-2-4-4->
---6-6-6-6-6-6-6-6-9-9-9-9-9-9-9-9-9-4-4-4-4-4-4-4-4-2-2-2-2-2-2-4-4->

--------------------------------------------------------------------->
--------------------------------------------------------------------->
--------------------------------------------------------------------->
---6-6-6-6-6-6-6-6-9-9-9-9-9-9-9-9-9-4-4-4-4-4-4-4-4-2-2-2-2-2-2-x-x->
---6-6-6-6-6-6-6-6-9-9-9-9-9-9-9-9-9-4-4-4-4-4-4-4-4-2-2-2-2-2-2-x-x->
---6-6-6-6-6-6-6-6-9-9-9-9-9-9-9-9-9-4-4-4-4-4-4-4-4-2-2-2-2-2-2-x-x->



--------------------------------------------------------------------->
--------------------------------------------------------------------->
--------------------------------------------------------------------->
---6-6-6-6-6-6-6-6-9-9-9-9-9-9-9-9-9-4-4-4-4-4-4-4-4-2-2-2-2-2-2-4-4->
---6-6-6-6-6-6-6-6-9-9-9-9-9-9-9-9-9-4-4-4-4-4-4-4-4-2-2-2-2-2-2-4-4->
---6-6-6-6-6-6-6-6-9-9-9-9-9-9-9-9-9-4-4-4-4-4-4-4-4-2-2-2-2-2-2-4-4->



---------------------------------------------------------------------|
---------------------------------------------------------------------|
---------------------------------------------------------------------|
---6-6-6-6-6-6-6-6-9-9-9-9-9-9-9-9-9-4-4-4-4-4-4-4-4-2-2-2-2-2-2-----|
---6-6-6-6-6-6-6-6-9-9-9-9-9-9-9-9-9-4-4-4-4-4-4-4-4-2-2-2-2-2-2-----|
---6-6-6-6-6-6-6-6-9-9-9-9-9-9-9-9-9-4-4-4-4-4-4-4-4-2-2-2-2-2-2-----|


repeat:    verse


--(Pre Chorus 2 1:11 - 1:22)--------------------------------------------------|
------------------------------------------------------------------------------|
--6-6-6---6-------------6-6-6---6--------4--4--4--------2---------2-2-2-2-2-2-|
--6-6-6---6-------------6-6-6---6--------4--4--4--------2---------2-2-2-2-2-2-|
--6-6-6---6--6666-------6-6-6---6--6666--4--4--4-2222---2-2222----2-2-2-2-2-2-|
pm------------------------------------------------------------|


repeat:      Pre Chorus,   Chorus


bridge is missing  yet  (1:49 - 2:27)


repeat:    Chorus x2
Suggest correction
Give kudos to tab author, rate the tab!
1 2 3 4 5
comments
print report bad tab
3 comments total.
0 reply
bluegravity 21 Jan 03, 2012 11:11 PM

"Bridge is missing yet because I was rung late and got no much time"?!? What the heck is that supposed to mean?

0 reply
MusicMan24 1,114 Feb 15, 2013 11:14 PM

My thoughts exactly...

0 reply
lilycool12 10 Dec 22, 2014 02:11 PM

:( this makes me sad

guest
You may want to rate the tab now too:
select rating
Wanna post a correction for this tab? Suggest correction