Oops, an error
Loading. Please wait.

Make A Move Bass Tab

version 2
version 2

Whole song

2,499 views 12 this week
3 commentsread comments
1 2 3 4 5
1 last vote to show rating
add to favorites
launch autoscroll
font size
0
reset
guitar tuner
Autoscroll
slow
fast
+/-
esc
set tempo
stop
Help us to improve Ultimate-Guitar.com Take our survey!
×
Author
Difficulty
Tuning
novice
D A D G B E
This tab was originally submited by Tommy NL but some people asked for the same tab 
written in drop-D, so it's just a small change, Tommy NL did the hard work

INTRO 0:04 - 0:10 (Somebody make a move....)
G|---------------------|
D|---------------------|
A|---------------------|
D|-444-4-4---444-4-4---|

REST 0:10-0:21 (Test my reality.....)
G|---------------------|
D|---------------------|
A|---------------------|
D|---------------------|

VERSE 0:21-0:32 (Everyone started out a little insane....)
G|-------------------------------------------------------------------|
D|-------------------------------------------------------------------|
A|-------------------------------------------------------------------|
D|00-4-4-4-4-4-4-4-4-4-4-4-4-4-4-4-4-0-0-0-0-0-0-0-0-0-0-0-0-0-0-0-0-|


REST 0:32-0:34 (So under that skin of yours: a heart attack)
G|---------------------|
D|---------------------|
A|---------------------|
D|---------------------|

PRE-CHORUS 0:34-0:37
G|---------------------|
D|---------------------|
A|---------------------|
D|-444-777-999-777-----|

CHORUS-A 0:37-0:48 ('Cause everybody's so scared....)
G|----------------------------------------|
D|----------------------------------------|
A|----------------------------------------|
D|-4444-7777-2222-0022-4444-7777-22222222-|

CHORUS-B 0:48-1:00 (Somebody make a move.....)
G|----------------------------------------|
D|----------------------------------------|
A|----------------------------------------|
D|-4444-7777-2222-0000-4444-7777-2222-0~--|

REST 1:00-1:03 (And if I had the answers I'd have written them out)
G|---------------------|
D|---------------------|
A|---------------------|
D|---------------------|

VERSE 1:03-1:11 (So I could tell you what to do and what this thing is about....)
G|---------------------------------------------|
D|---------------------------------------------|
A|---------------------------------------------|
D|-4-4-4-4-4-4-4-4-0-0-0-0-0-0-0-0-0-0-0-0-0-0-|

VERSE 1:11-1:23 (You and I; we share the same disease.....)
G|---------------------------------------------|
D|---------------------------------------------|
A|---------------------------------------------|
D|--444-4-4----444-4-4--22000-0-0---000000999--|


PRE -CHORUS 1:23-6
G|---------------------|
D|---------------------|
A|---------------------|
D|-444-777-999-777-----|

CHORUS-A 1:26-1:37 ('Cause everybody's so scared....)
G|-----------------------------------------|
D|-----------------------------------------|
A|-----------------------------------------|
D|-4444-7777-2222-0022-4444-7777-22222222~-|

CHORUS-B 1:37-1:49 (Somebody make a move.....)
G|-----------------------------------------|
D|-----------------------------------------|
A|-----------------------------------------|
D|-4444-7777-2222-0000-4444-7777-22220~----|

BRIDGE 1:49-2:01 (Pointing my fingers the problems still linger)
G|----------------------------------------------|
D|----------------------------------------------|
A|-------------------4444~-------------------4~-|
D|-4444~-7777~-9999~-------4444~-7777~-9999~----|

BRIDGE2 2:01-2:14 (Somebody make a move....)
G|----------------------------------------------|
D|----------------------------------------------|
A|----------------------------------------------|
D|-444-4-4----444-4-4--22000-0-0--000-0-0--0-4~-|

CHORUS2-A 2:14 - 2:20 ('Cause everybody's so scared....)
G|---------------------|
D|---------------------|
A|---------------------|
D|---------------------|

CHORUS2-B  -  2:21-2:27--| (Screaming in the dark while we just play our part...)
G|-----------------------|
D|-----------------------|
A|-----------------------|
D|-44-77-22222222--------|

CHORUS-A 2:27-2:38 ('Cause everybody's so scared....)
G|-----------------------------------------|
D|-----------------------------------------|
A|-----------------------------------------|
D|-4444-7777-2222-0022-4444-7777-22222222~-|

CHORUS-B 2:38-2:49 (Somebody make a move.....)
G|-----------------------------------------|
D|-----------------------------------------|
A|-----------------------------------------|
D|-4444-7777-2222-0000-4444-7777-22220~----|

CHORUS-B 2:49-3:03 (Somebody make a move.....)
G|-----------------------------------------|
D|-----------------------------------------|
A|-----------------------------------------|
D|-4444-7777-2222-0000-4444-7777-22220-----|
Suggest correction
Give kudos to tab author, rate the tab!
1 2 3 4 5
comments
print report bad tab
3 comments total.
0 reply
Jernimo 95 Apr 27, 2014 07:53 PM

didn't like this contribution

0 reply
inkms 103 Jul 05, 2014 05:39 PM

Why? Tell me so that I can fix it

0 reply
RozzD 10 Aug 24, 2014 10:58 PM

The tempo is kind of slow, it feels like there is more than just 4 notes at time. Maybe add some more notes in general to increase the tempo? It sounds like the bassist is driving it. I'm not sure though, just experiment with it! Haha. Other than that, fantastic job!

guest
You may want to rate the tab now too:
select rating
Wanna post a correction for this tab? Suggest correction