Oops, an error
Loading. Please wait.

Make A Move Tab

version 2
version 2

Whole song

Video

7,379 views 24 this week
4 commentsread comments
1 2 3 4 5
accurate
x 13
add to favorites
launch autoscroll
font size
0
reset
how to read this tab
guitar tuner
Tab Pro tools
  • play this tab
  • loop segment
  • change instrument
  • show fretboard
  • metronome
Autoscroll
slow
fast
+/-
esc
set tempo
stop
Contributor
-------------------------------------------------------------------------------
                             MAKE A MOVE - Icon For Hire
-------------------------------------------------------------------------------
Tabbed by: Ult.Rocker5256
E-mail: Javier.enrique.m4a1@gmail.com

Tuning: Drop D

Intro:
e|------------------------------------------------|
B|------------------------------------------------|
G|------------------------------------------------|
D|------4---------4---4-------4---------4---4--4--|
A|------4---------4---4-------4---------4---4--4--|
D|------4---4-4-4-4---4---4---4---4-4-4-4---4--4--|

e|---------------------------------------------------------------------|
B|---------------------------------------------------------------------|
G|---------------------------------------------------------------------|
D|--4-4-4-4-4-4-4-4-4-4-4-4-4-4-4-4-0-0-0-0-0-0-0-0-0-0-0-0-0-0-0-0-0--|
A|--------------------------------------------------------------0-0-0--|
D|--------------------------------------------------------------0-0-0--|

Verse 1
e|-----------------------------------------------------------------|
B|-----------------------------------------------------------------|
G|-----------------------------------------------------------------|
D|--4-4-4-4-4-4-4-4-4-4-4-4-4-4-4-4-0-0-0-0-0-0-0-0-0-0-0-0-0------|
A|-----------------------------------------------------------------|
D|-----------------------------------------------------------------|

Interlude
e|---------------------------------|
B|---------------------------------|
G|---------------------------------|
D|--4-4-4-//7-7-7//9-9-9//7-7-7----|
A|--x-x-x-//x-x-x//x-x-x//x-x-x----|
D|--4-4-4-//7-7-7//9-9-9//7-7-7----|

Pre-Chorus
e|-------------------------------------------------------------------|
B|-------------------------------------------------------------------|
G|-------------------------------------------------------------------|
D|---4-4-4-4-4-4-4-4-7-7-7-7-7-7-7-7-2-2-2-2-2-2-2-2-0-0-0-0-0-0-2-2-|
A|---4-4-4-4-4-4-4-4-7-7-7-7-7-7-7-7-2-2-2-2-2-2-2-2-0-0-0-0-0-0-2-2-|
D|---4-4-4-4-4-4-4-4-7-7-7-7-7-7-7-7-2-2-2-2-2-2-2-2-0-0-0-0-0-0-2-2-|

e|-------------------------------------------------------------------|
B|-------------------------------------------------------------------|
G|-------------------------------------------------------------------|
D|---4-4-4-4-4-4-4-4-7-7-7-7-7-7-7-7-2-2-2-2-2-2-2-2-0-0-0-0-0-0-x-x-|
A|---4-4-4-4-4-4-4-4-7-7-7-7-7-7-7-7-2-2-2-2-2-2-2-2-0-0-0-0-0-0-x-x-|
D|---4-4-4-4-4-4-4-4-7-7-7-7-7-7-7-7-2-2-2-2-2-2-2-2-0-0-0-0-0-0-x-x-|

Chorus
e|-------------------------------------------------------------------|
B|-------------------------------------------------------------------|
G|-------------------------------------------------------------------|
D|---4-4-4-4-4-4-4-4-7-7-7-7-7-7-7-7-2-2-2-2-2-2-2-2-0-0-0-0-0-0-2-2-|
A|---4-4-4-4-4-4-4-4-7-7-7-7-7-7-7-7-2-2-2-2-2-2-2-2-0-0-0-0-0-0-2-2-|
D|---4-4-4-4-4-4-4-4-7-7-7-7-7-7-7-7-2-2-2-2-2-2-2-2-0-0-0-0-0-0-2-2-|

e|-------------------------------------------------------------------|
B|---------------------------------------------------------------|
G|---------------------------------------------------------------|
D|---4-4-4-4-4-4-4-4-7-7-7-7-7-7-7-7-2-2-2-2-2-2-2-2-0-0-0-0-0-0-|
A|---4-4-4-4-4-4-4-4-7-7-7-7-7-7-7-7-2-2-2-2-2-2-2-2-0-0-0-0-0-0-|
D|---4-4-4-4-4-4-4-4-7-7-7-7-7-7-7-7-2-2-2-2-2-2-2-2-0-0-0-0-0-0-|

Verse 2 (Same as verse 1)
e|-------------------------------------------------------------------------|
B|-------------------------------------------------------------------------|
G|-------------------------------------------------------------------------|
D|--4-4-4---4-4-4------4-4-4---4-4-4------2-2-2---2-2-2------0-0-0---0-0-0-|
A|--4-4-4---4-4-4------4-4-4---4-4-4------2-2-2---2-2-2------0-0-0---0-0-0-|
D|--4-4-4---4-4-4------4-4-4---4-4-4------2-2-2---2-2-2------0-0-0---0-0-0-|

Interlude 

Pre Chorus

Chorus

Bridge

e|-------------------------------------------------------------------|
B|-------------------------------------------------------------------|
G|-555555-777777-999999--------555555-777777-999999------------------|
D|-555555-777777-999999-999999-555555-777777-999999-222xxx-----------|
A|-333333-555555-777777-999999-333333-555555-777777-222xxx-----------|
D|----------------------999999----------------------222xxx-----------|

e|-----------------------------------------------------------------------------|
B|-----------------------------------------------------------------------------|
G|-----------------------------------------------------------------------------|
D|--4-4-4---4-4-4------4-4-4---4-4-4------2-2-2---2-2-2------2-2-2---2-2-2---4-|
A|--4-4-4---4-4-4------4-4-4---4-4-4------2-2-2---2-2-2------2-2-2---2-2-2---4-|
D|--4-4-4---4-4-4------4-4-4---4-4-4------2-2-2---2-2-2------2-2-2---2-2-2---4-|


(Screaming in the dark now  We must play a part, up here all alone)
e|--------------------------------|
B|--------------------------------|
G|--------------------------------|
D|--444---777---000-000-000-------|
A|--444---777---000-000-000-------|
D|--444---777---000-000-000-------|

Pre-Chorus

Chorus

End Chorus
(Strum less on this one)

e|-----------------------------------|
B|-----------------------------------|
G|-----------------------------------|
D|---4-4-4-4-7-7-7-7-2-2-2-2-0-0-2-2-|
A|---4-4-4-4-7-7-7-7-2-2-2-2-0-0-2-2-|
D|---4-4-4-4-7-7-7-7-2-2-2-2-0-0-2-2-|

e|-----------------------------------|
B|-----------------------------------|
G|-----------------------------------|
D|---4-4-4-4-7-7-7-7-2-2-2-2-0-0-x-x-|
A|---4-4-4-4-7-7-7-7-2-2-2-2-0-0-x-x-|
D|---4-4-4-4-7-7-7-7-2-2-2-2-0-0-x-x-|
comments
print report bad tab
4 comments total. Showing first comments.
+1 reply
Ult.Rocker5256 wrote on July 16 2012, 03:32 pm

i played this in drop D bcuz it's one of the easiest tunings aside from standard to play in. i hope u like it, enjoy.

+1 reply
ericoaks123 wrote on July 6 2014, 12:07 pm

I think it sounds just as fine not in drop D.

0 reply
musicnotes1999 wrote on May 28 2015, 05:18 pm

How many times do I play each part?

I want to post or [tab]
guest
You may want to rate the tab now too:
select rating
Please do not post tabs as comments. Select "correction" instead!