Oops, an error
Loading. Please wait.

Make A Move bass

version 3
version 3

Whole song

612 views 1 this week
1 commentread comment
1 2 3 4 5
2 more votes to show rating
add to favorites
×
Save as Personal and add changes to this tab that will be seen only by you. Learn more ›
×
You can save this tab as Personal to edit and correct it or add notes. All changes will be seen only by you. Learn more »
launch autoscroll
font size
0
reset
guitar tuner
edit
Autoscroll
slow
fast
+/-
esc
set tempo
stop
INTRO 0:04 - 0:10 (Somebody make a move....)
F|---------------------|
C|---------------------|
G|---------------------|
C|-666-6-6---666-6-6---|

REST 0:10-0:21 (Test my reality.....)
F|---------------------|
C|---------------------|
G|---------------------|
C|---------------------|

VERSE 0:21-0:32 (Everyone started out a little insane....)
F|-------------------------------------------------------------------|
C|-------------------------------------------------------------------|
G|-------------------------------------------------------------------|
C|22-6-6-6-6-6-6-6-6-6-6-6-6-6-6-6-6-2-2-2-2-2-2-2-2-2-2-2-2-2-2-2-2-|


REST 0:32-0:34 (So under that skin of yours: a heart attack)
F|---------------------|
C|---------------------|
G|---------------------|
C|---------------------|

PRE-CHORUS 0:34-0:37
F|--------------------------|
C|--------------------------|
G|--------------------------|
C|-666-999-11-11-11-999-----|

CHORUS-A 0:37-0:48 ('Cause everybody's so scared....)
F|----------------------------------------|
C|----------------------------------------|
G|----------------------------------------|
C|-6666-9999-4444-2244-6666-9999-44444444-|

CHORUS-B 0:48-1:00 (Somebody make a move.....)
F|----------------------------------------|
C|----------------------------------------|
G|----------------------------------------|
C|-6666-9999-4444-2222-6666-9999-4444-2~--|

REST 1:00-1:03 (And if I had the answers I'd have written them out)
F|---------------------|
C|---------------------|
G|---------------------|
C|---------------------|

VERSE 1:03-1:11 (So I could tell you what to do and what this thing is about....)
F|---------------------------------------------|
C|---------------------------------------------|
G|---------------------------------------------|
C|-6-6-6-6-6-6-6-6-2-2-2-2-2-2-2-2-2-2-2-2-2-2-|

VERSE 1:11-1:23 (You and I; we share the same disease.....)
F|--------------------------------------------------|
C|--------------------------------------------------|
G|--------------------------------------------------|
C|--666-6-6----666-6-6--44222-2-2---22222211-11-11--|


PRE -CHORUS 1:23-6
F|--------------------------|
C|--------------------------|
G|--------------------------|
C|-666-999-11-11-11-999-----|

CHORUS-A 1:26-1:37 ('Cause everybody's so scared....)
F|-----------------------------------------|
C|-----------------------------------------|
G|-----------------------------------------|
C|-6666-9999-4444-2244-6666-9999-44444444~-|

CHORUS-B 1:37-1:49 (Somebody make a move.....)
F|-----------------------------------------|
C|-----------------------------------------|
G|-----------------------------------------|
C|-6666-9999-4444-2222-6666-9999-44442~----|

BRIDGE 1:49-2:01 (Pointing my fingers the problems still linger)
F|------------------------------------------------------|
C|------------------------------------------------------|
G|-----------------------6666~-----------------------6~-|
C|-6666~-9999~-11-11-11~-------6666~-9999~-11-11-11~----|

BRIDGE2 2:01-2:14 (Somebody make a move....)
F|----------------------------------------------|
C|----------------------------------------------|
G|----------------------------------------------|
C|-666-6-6----666-6-6--44222-2-2--222-2-2--2-6~-|

CHORUS2-A 2:14 - 2:20 ('Cause everybody's so scared....)
F|---------------------|
C|---------------------|
G|---------------------|
C|---------------------|

CHORUS2-B  -  2:21-2:27--| (Screaming in the dark while we just play our part...)
F|-----------------------|
C|-----------------------|
G|-----------------------|
C|-66-99-44444444--------|

CHORUS-A 2:27-2:38 ('Cause everybody's so scared....)
F|-----------------------------------------|
C|-----------------------------------------|
G|-----------------------------------------|
C|-6666-9999-4444-2244-6666-9999-44444444~-|

CHORUS-B 2:38-2:49 (Somebody make a move.....)
F|-----------------------------------------|
C|-----------------------------------------|
G|-----------------------------------------|
C|-6666-9999-4444-2222-6666-9999-44442~----|

CHORUS-B 2:49-3:03 (Somebody make a move.....)
F|-----------------------------------------|
C|-----------------------------------------|
G|-----------------------------------------|
C|-6666-9999-4444-2222-6666-9999-44442-----|
Suggest correction
Creating personal tab
Creating personal tab
You can edit any tab online and save it as your Personal.

You can edit, replace or remove any tab part or add personal notes – all changes will be seen only by you.

Personal tabs can be accessed anytime from any device, even offline.
Learn more »
Give kudos to tab author, rate the tab!
1 2 3 4 5
comments
print report bad tab
1 comment total.
0 reply
Haloquadratum 110 May 15, 2013 07:05 AM

so why did you decide to copy the previous tab into drop C? why the **** would anyone play it in drop C?

just because of the plagiarism, 1 star.

guest
Wanna post a correction for this tab? Suggest correction