Oops, an error
Loading. Please wait.

Off With Her Head Tab

version 1
version 1

Whole song

Interactive

5,929 views 3 this week
no commentswrite comment
1 2 3 4 5
2 more votes to show rating
add to favorites
launch autoscroll
font size
0
reset
how to read this tab
guitar tuner
Autoscroll
slow
fast
+/-
esc
set tempo
stop
Help us to improve Ultimate-Guitar.com Take our survey!
×
Difficulty
Tuning
intermediate
D A D G B E
Off With Her Head
by
Icon For Hire

Played in Drop D

pm = palm mute
s> = scratch
/ = slide


Intro:
1 |------------------------------------------------------------------------------------|
2 |------------------------------------------------------------------------------------|
3 |------------------------------------------------------------------------------------|
4 |-3--8-11-10-10--6-6-6-6-6-6--|--8-8-8-1--|--3--8-11-10-10--6-6-6-6-6-6--|--8-8-8-1--|
5 |-3--8-11-10-10--6-6-6-6-6-6--|--8-8-8-1--|--3--8-11-10-10--6-6-6-6-6-6--|--8-8-8-1--|
6 |-3--8-11-10-10--6-6-6-6-6-6--|--8-8-8-1--|--3--8-11-10-10--6-6-6-6-6-6--|--8-8-8-1--|
   5x~~~~~~~~~~~~~~pm~~~~~~~~~    pm~~~~~     3x~~~~~~~~~~~~~~pm~~~~~~~~~     pm~~~~~

Verse:
  I'm lucky.... my sin is......... This cell..  I didn't know
1 |-------------------------------------------------------------------------------------------|
2 |-------------------------------------------------------------------------------------------|
3 |-------------------------------------------------------------------------------------------|
4 |-1-1--s>-----1-------------------1-1--s>-----8-8-8-8-8-8-8-0-------------------------------|
5 |-1-1--s>-----1-------------------1-1--s>-----8-8-8-8-8-8-8-0-------------------------------|
6 |-1-1--s>-----1--8-10-8-6-8-6-----1-1--s>-----8-8-8-8-8-8-8-0-------------------------------|
                                                pm~~~~~~~~~~~

Pre-chorus:
    How long........... I wait for.............. I know they'll...... guilty as charged..
1 |-------------------------------------------------------------------------------------|
2 |-------------------------------------------------------------------------------------|
3 |-------------------------------------------------------------------------------------|
4 |-3--3-3--3-3--3-s>----3--3-3--3-3--3-8-10-8---3--3-3--3-3--3-s>----8-10-8--6-8-6-----|
5 |-3--3-3--3-3--3-s>----3--3-3--3-3--3-8-10-8---3--3-3--3-3--3-s>----8-10-8--6-8-6-----|
6 |-3--3-3--3-3--3-s>----3--3-3--3-3--3-8-10-8---3--3-3--3-3--3-s>----8-10-8--6-8-6-----|

    My enemies belittle me reminding me the penalty of all my deeds despite my pleas is death.
1 |------------------------------------------------------------------------------------|
2 |------------------------------------------------------------------------------------|
3 |------------------------------------------------------------------------------------|
4 |-3-3-3-3-10-10-10-10-8-8-8-8-6-6-6-6-3-3-3-3-10-10-10-10-8--------------------------|
5 |-3-3-3-3-10-10-10-10-8-8-8-8-6-6-6-6-3-3-3-3-10-10-10-10-8--------------------------|
6 |-3-3-3-3-10-10-10-10-8-8-8-8-6-6-6-6-3-3-3-3-10-10-10-10-8--------------------------|
   pm~~~~~~~~~~~~~~~~~~~~~~~~~~~~~~~~~~~~~~~~~~~~~~~~~~~~~~~~

Chorus:
  Dont let..............(2nd)I dont..I know..(2nd)Dont let go.. Savior
1 |----------------------------------------------------------------------------|
2 |----------------------------------------------------------------------------|
3 |----------------------------------------------------------------------------|
4 |-3/8-10-----10-10-10-11-8----8-8-8-10-6----6-6-6-6-10-10-10-10-11-11-13-13--|
5 |-3/8-10-----10-10-10-11-8----8-8-8-10-6----6-6-6-6-10-10-10-10-11-11-13-13--|
6 |-3/8-10-----10-10-10-11-8----8-8-8-10-6----6-6-6-6-10-10-10-10-11-11-13-13--|
  2x~~~~~~~~~~~~~~~~~~~~ho~~~~~~~~~~~~ho~~~~~~~~~~~~~~~~~~~~~~~~~~~~~~~~~~~~~

Riff:
1 |------------------------------------------------------------|
2 |------------------------------------------------------------|
3 |------------------------------------------------------------|
4 |-3--8-11-10-10--6-6-6-6-6-6--3--8-11-10-10-----1------------|
5 |-3--8-11-10-10--6-6-6-6-6-6--3--8-11-10-10-----1------------|
6 |-3--8-11-10-10--6-6-6-6-6-6--3--8-11-10-10--6--1------------|
                   pm~~~~~~~~~

Verse:
    Your way... It serves......... And I will...Unless you hear me
1 |------------------------------------------------------------------------------------------|
2 |------------------------------------------------------------------------------------------|
3 |------------------------------------------------------------------------------------------|
4 |-1-1--s>-----1-------------------1-1--s>-----8-8-8-8-8-8-8-0------------------------------|
5 |-1-1--s>-----1-------------------1-1--s>-----8-8-8-8-8-8-8-0------------------------------|
6 |-1-1--s>-----1--8-10-8-6-8-6-----1-1--s>-----8-8-8-8-8-8-8-0------------------------------|
                                                pm~~~~~~~~~~~

Pre-chorus:
  How long............. I wait for............. I know they'll...... guilty as charged..
1 |-------------------------------------------------------------------------------------|
2 |-------------------------------------------------------------------------------------|
3 |-------------------------------------------------------------------------------------|
4 |-3--3-3--3-3--3-s>----3--3-3--3-3--3-8-10-8---3--3-3--3-3--3-s>----8-10-8-6-8-6------|
5 |-3--3-3--3-3--3-s>----3--3-3--3-3--3-8-10-8---3--3-3--3-3--3-s>----8-10-8-6-8-6------|
6 |-3--3-3--3-3--3-s>----3--3-3--3-3--3-8-10-8---3--3-3--3-3--3-s>----8-10-8-6-8-6------|

  My enemies belittle me reminding me the penalty of all my deeds despite my pleas is death.
1 |------------------------------------------------------------------------------------|
2 |------------------------------------------------------------------------------------|
3 |------------------------------------------------------------------------------------|
4 |-3-3-3-3-10-10-10-10-8-8-8-8-6-6-6-6-3-3-3-3-10-10-10-10-8--------------------------|
5 |-3-3-3-3-10-10-10-10-8-8-8-8-6-6-6-6-3-3-3-3-10-10-10-10-8--------------------------|
6 |-3-3-3-3-10-10-10-10-8-8-8-8-6-6-6-6-3-3-3-3-10-10-10-10-8--------------------------|
   pm~~~~~~~~~~~~~~~~~~~~~~~~~~~~~~~~~~~~~~~~~~~~~~~~~~~~~~~~

Chorus:
 Dont let go.......(2nd)I dont.... I know........(2nd)Dont let.. Savior
1 |----------------------------------------------------------------------------|
2 |----------------------------------------------------------------------------|
3 |----------------------------------------------------------------------------|
4 |-3/8-10-----10-10-10-11-8----8-8-8-10-6----6-6-6-6-10-10-10-10-11-11-13-13--|
5 |-3/8-10-----10-10-10-11-8----8-8-8-10-6----6-6-6-6-10-10-10-10-11-11-13-13--|
6 |-3/8-10-----10-10-10-11-8----8-8-8-10-6----6-6-6-6-10-10-10-10-11-11-13-13--|
  2x~~~~~~~~~~~~~~~~~~~~ho~~~~~~~~~~~~ho~~~~~~~~~~~~~~~~~~~~~~~~~~~~~~~~~~~~~

Bridge:
1 |-----------------------------------------------------------------------------------------------|
2 |-----------------------------------------------------------------------------------------------|
3 |-----------------------------------------------------------------------------------------------|
4 |3-3--3-3-3--3-3-1--3-3--3-3--3-3-1--3-3--3-3-3--3-3-1--|--3-3--3-3--3-3--3-3--1-1--|--8-8-8-8-0|
5 |3-3--3-3-3--3-3-1--3-3--3-3--3-3-1--3-3--3-3-3--3-3-1--|--3-3--3-3--3-3--3-3--1-1--|--8-8-8-8-0|
6 |3-3--3-3-3--3-3-1--3-3--3-3--3-3-1--3-3--3-3-3--3-3-1--|--3-3--3-3--3-3--3-3--1-1--|--8-8-8-8-0|
    pm~~~~~~~~~~~~~    ~~~~~~~~~~~~~    ~~~~~~~~~~~~~~~      3x~~~~~~~~~~~~~~~~~~~~~~    
 pm~~~~~

Chorus:
   I dont.. I know…...... Dont let go.. Save your
1 |--------------------------------------------------------|
2 |--------------------------------------------------------|
3 |--------------------------------------------------------|
4 |-8--8-8-8-10-6--6-6-6-6-10-10-10-10-11-11-13-13---------|
5 |-8--8-8-8-10-6--6-6-6-6-10-10-10-10-11-11-13-13---------|
6 |-8--8-8-8-10-6--6-6-6-6-10-10-10-10-11-11-13-13---------|
             ho

   Own cuz...........(2nd)I dont...I know.......(2nd) Dont let. Savior
1 |----------------------------------------------------------------------------|
2 |----------------------------------------------------------------------------|
3 |----------------------------------------------------------------------------|
4 |-3/8-10-----10-10-10-11-8----8-8-8-10-6----6-6-6-6-10-10-10-10-11-11-13-13--|
5 |-3/8-10-----10-10-10-11-8----8-8-8-10-6----6-6-6-6-10-10-10-10-11-11-13-13--|
6 |-3/8-10-----10-10-10-11-8----8-8-8-10-6----6-6-6-6-10-10-10-10-11-11-13-13--|
                        ho            ho

Outro:
1 |----------------------------------------------------------------------|
2 |----------------------------------------------------------------------|
3 |----------------------------------------------------------------------|
4 |-3--8-11-10-10--6-6-6-6-6-6--|--3--8-11-10-10-10-8-6-8-6-3------------|
5 |-3--8-11-10-10--6-6-6-6-6-6--|--3--8-11-10-10-10-8-6-8-6-3------------|
6 |-3--8-11-10-10--6-6-6-6-6-6--|--3--8-11-10-10-10-8-6-8-6-3------------|
 2x~~~~~~~~~~~~~~~~~~~~~~~~~~~~~


First song I've ever tabbed and learned by myself. If you have any suggestions or
comments, please contact me @ rourke.wilson@hotmail.com
Suggest correction
Give kudos to tab author, rate the tab!
1 2 3 4 5
comments
print report bad tab
guest
You may want to rate the tab now too:
select rating
Wanna post a correction for this tab? Suggest correction