Oops, an error
Loading. Please wait.

Off With Her Head Tab

version 2
version 2

Whole song

Interactive

3,246 views 9 this week
no commentswrite comment
1 2 3 4 5
accurate
x 4
add to favorites
launch autoscroll
font size
0
reset
how to read this tab
guitar tuner
Tab Pro tools
  • play this tab
  • loop segment
  • change instrument
  • show fretboard
  • metronome
×
Best way to learn
"Off With Her Head"
Autoscroll
slow
fast
+/-
esc
set tempo
stop
Contributor
Difficulty
Tuning
novice
C# G# C# F# A# D#
Here's a pretty accurate tab for those who want to learn this awesome song. I learned 
most of it by ear and from covers on YouTube. Enjoy!


Intro
D#|--------------------------------------------------------------------|
A#|--------------------------------------------------------------------|
F#|---6/7/6-------------6/7/6-------------6/7/6-----------4-4-4--------|
C#|-4-x/x/x-000-0-000-4-x/x/x-000-0-000-4-x/x/x-000-0-000-4-4-4--2-----|
G#|-4-4/5/4-000-0-000-4-4/5/4-000-0-000-4-4/5/4-000-0-000-2-2-2--2-----|
C#|-4-------000-0-000-4-------000-0-000-4-------000-0-000--------2-----| X2
            XXX   XXX         XXX   XXX         XXX   XXX

Verse
*N.H. (Natural Harmonics)
D#|-------------------------------------------------------------|
A#|-------------------------------------------------------------|
F#|-------------------------------------------------------------|
C#|-------------------------------------------------------------|
G#|-----------------------------------------------4/5/4--2/4/2--|
C#|-4--4*4*4*4*--4--4*4*4*4*3*3*3*3*--4--4*4*4*4*---------------|
                                                 *P.H.
D#|---------------------------------------------------|
A#|---------------------------------------------------|
F#|-----------------------------------44444444--------|
C#|-----------------------------------44444444-2---4*-|
G#|-----------------------------------22222222-2------|
C#|-4--4*4*4*4*--4--4*4*4*4*3*3*3*3*-----------2------|
                                      XXXXXXXX
Pre-Chorus
D#|----------------------------------------------------------------|
A#|----------------------------------------------------------------|
F#|----------------------------------------------------------------|
C#|-4-44-44-44-44---------------4-44-44-44-44----------------------|
G#|-4-44-44-44-44---------------4-44-44-44-44--4/5/4---------------|
C#|-4-44-44-44-44-4*4*4*3*3*3*--4-44-44-44-44--------4-44-44-44-44-|
                                    My enemies...
D#|--------------------------------|-----------------------------------|
A#|--------------------------------|-----------------------------------|
F#|--------------------------------|---------------------------------4-|
C#|--------------------------------|---------------------------------4-|
G#|---------------4/5/4--2-2/4/2~--|-----444444/222-0/2-0/2-----4444-2-|
C#|-4*4*4*3*3*3*-------------------|--444-------------------4444-------|

Chorus
D#|------------------------------------------------------------------|
A#|------------------------------------------------------------------|
F#|-------------------66666666-7777-9999--------------------44444444-|
C#|-44444444-00000000-66666666-7777-9999--44444444-00000000-44444444-|
G#|-44444444-00000000-44444444-5555-7777--44444444-00000000-22222222-|
C#|-44444444-00000000---------------------44444444-00000000----------|

D#|-----------|
A#|-----------|
F#|-6666-7777-|
C#|-6666-7777-|
G#|-4444-5555-|
C#|-----------|

Intro (Play Riff Once) then...
D#|---------------|
A#|---------------|
F#|---------------|
C#|---------------|
G#|-0-4/2/0-------|
C#|---------------|

Verse
*N.H. (Natural Harmonics)
D#|-------------------------------------------------------------|
A#|-------------------------------------------------------------|
F#|-------------------------------------------------------------|
C#|-------------------------------------------------------------|
G#|-----------------------------------------------4/5/4--2/4/2--|
C#|-4--4*4*4*4*--4--4*4*4*4*3*3*3*3*--4--4*4*4*4*---------------|
                                                 *P.H.
D#|---------------------------------------------------|
A#|---------------------------------------------------|
F#|-----------------------------------44444444--------|
C#|-----------------------------------44444444-2---4*-|
G#|-----------------------------------22222222-2------|
C#|-4--4*4*4*4*--4--4*4*4*4*3*3*3*3*-----------2------|
                                      XXXXXXXX

Pre-Chorus
D#|----------------------------------------------------------------|
A#|----------------------------------------------------------------|
F#|----------------------------------------------------------------|
C#|-4-44-44-44-44---------------4-44-44-44-44----------------------|
G#|-4-44-44-44-44---------------4-44-44-44-44--4/5/4---------------|
C#|-4-44-44-44-44-4*4*4*3*3*3*--4-44-44-44-44--------4-44-44-44-44-|
                                    My enemies...
D#|--------------------------------|-----------------------------------|
A#|--------------------------------|-----------------------------------|
F#|--------------------------------|---------------------------------4-|
C#|--------------------------------|---------------------------------4-|
G#|---------------4/5/4--2-2/4/2~--|-----444444/222-0/2-0/2-----4444-2-|
C#|-4*4*4*3*3*3*-------------------|--444-------------------4444-------|


Chorus
D#|------------------------------------------------------------------|
A#|------------------------------------------------------------------|
F#|-------------------66666666-7777-9999--------------------44444444-|
C#|-44444444-00000000-66666666-7777-9999--44444444-00000000-44444444-|
G#|-44444444-00000000-44444444-5555-7777--44444444-00000000-22222222-|
C#|-44444444-00000000---------------------44444444-00000000----------|

D#|-----------|
A#|-----------|
F#|-6666-7777-|
C#|-6666-7777-|
G#|-4444-5555-|
C#|-----------|

Bridge
D#|---------------------------------------------|------------------|
A#|---------------------------------------------|------------------|
F#|---------------------------------------------|------------------|
C#|-44--444-2-44--44-44-2-44-444-2-44-4/2-2222--|-44-44-44-44-2222-|
G#|-44--444-2-44--44-44-2-44-444-2-44-4/2-2222--|-44-44-44-44-2222-|
C#|-44--444-2-44--44-44-2-44-444-2-44-4/2-2222--|-44-44-44-44-2222-| X3
    XX  XXX   XX  XX XX   XX XXX   XX
Then
D#|---------|
A#|---------|
F#|-4444----|
C#|-4444-2--|
G#|-2222-2--|
C#|------2--|

Chorus
Dont...this. I dont wannt be this! Death...
D#|----------|--------------------------------------------------------|
A#|----------|--------------------------------------------------------|
F#|----------|---------66666666-7777-9999--------------------44444444-|
C#|----------|00000000-66666666-7777-9999--44444444-00000000-44444444-|
G#|----------|00000000-44444444-5555-7777--44444444-00000000-22222222-|
C#|----------|00000000---------------------44444444-00000000----------|

D#|-----------|
A#|-----------|
F#|-6666-7777-|
C#|-6666-7777-|
G#|-4444-5555-|
C#|-----------|

Outro
D#|-----------------------------------------------------------|
A#|-----------------------------------------------------------|
F#|---6/7/6-------------6/7/6-------------6/7/6---------------|
C#|-4-x/x/x-000-0-000-4-x/x/x-000-0-000-4-x/x/x------------4--|
G#|-4-4/5/4-000-0-000-4-4/5/4-000-0-000-4-4/5/4--4/2/0-2/0-4--|
C#|-4-------000-0-000-4-------000-0-000-4------------------4--|
            XXX   XXX         XXX   XXX
comments
print report bad tab
I want to post or [tab]
guest
You may want to rate the tab now too:
select rating
Please do not post tabs as comments. Select "correction" instead!