Oops, an error
Loading. Please wait.

The Grey tab

version 2
version 2

Whole song

157 views 1 this week
no commentswrite comment
1 2 3 4 5
3 more votes to show rating
add to favorites
×
Save as Personal and add changes to this tab that will be seen only by you. Learn more ›
×
You can save this tab as Personal to edit and correct it or add notes. All changes will be seen only by you. Learn more »
launch autoscroll
font size
0
reset
how to read this tab
guitar tuner
edit
Autoscroll
slow
fast
+/-
esc
set tempo
stop
Author
The verses and first chorus and such are the same but I promise the further you get into 
the song it's not all
repetitive!

Capo 5


[Verse]

  Dm              C           A#              A
e|--------0---------------0-----------3----------------0-------|
B|----3-------3-------1-----------3-------3--------3-------3---|
G|--2---2---2---2---0---0---0---3---3---3---3----3---3---3---3-| x4 (or 5 if you do an 
D|0---------------2-----------3----------------3---------------|      extra for intro)
A|-------------------------------------------------------------|
E|-------------------------------------------------------------|


[Chorus]

  Dm              C           A#              A
e|--------0---------------0-----------3----------------0-------|
B|----3-------3-------1-----------3-------3--------3-------3---|
G|--2---2---2---2---0---0---0---3---3---3---3----3---3---3---3-| x2
D|0---------------2-----------3----------------3---------------|
A|-------------------------------------------------------------|
E|-------------------------------------------------------------|


[Verse 2]

   Dm              C           A#              A
e|--------0---------------0-----------3----------------0-------|
B|----3-------3-------1-----------3-------3--------3-------3---|
G|--2---2---2---2---0---0---0---3---3---3---3----3---3---3---3-| x4
D|0---------------2-----------3----------------3---------------|
A|-------------------------------------------------------------|
E|-------------------------------------------------------------|


[Pre-chorus]

  Dm-
  I should've known, I should've known
  C*(play continuously in quavers for full line)
  I didn't have a chance


[Chorus 2]

  Dm     C       A#      A       Dm      C       A#      A
E|1--1-1-0---0-0-1---1-1-0---0-0-1---1-1-0---0-0-1-1-1-1-0-0-0-0|
B|3--3-3-1---1-1-3---3-3-2---2-2-3---3-3-1---1-1-3-3-3-3-2-2-2-2|
G|2--2-2-0---0-0-3---3-3-2---2-2-2---2-2-0---0-0-3-3-3-3-2-2-2-2| x2
D|0--0-0-2---2-2-3---3-3-2---2-2-0---0-0-2---2-2-3-3-3-3-2-2-2-2|
A|-------3---3-3-1---1-1-0---0-0---------3---3-3-1-1-1-1-0-0-0-0|
E|--------------------------------------------------------------|


[Bridge]

C* (one strum per a beat, continue this pattern whole way through the bridge)
In your deepest pain
A#*
In your weakest hour
C*
In your darkest nights
A#*            Dm*
You are lovely

C
In your deepest pain
A#
In your weakest hour
C
In your darkest nights
A#
You are lovely


[Chorus]

  Dm              C           A#              A
e|--------0---------------0-----------3----------------0-------|
B|----3-------3-------1-----------3-------3--------3-------3---|
G|--2---2---2---2---0---0---0---3---3---3---3----3---3---3---3-|
D|0---------------2-----------3----------------3---------------|
A|-------------------------------------------------------------|
E|-------------------------------------------------------------|

  Dm     C       A#      A       Dm      C       A#      A
E|1--1-1-0---0-0-1---1-1-0---0-0-1---1-1-0---0-0-1-1-1-1-0-0-0-0|
B|3--3-3-1---1-1-3---3-3-2---2-2-3---3-3-1---1-1-3-3-3-3-2-2-2-2|
G|2--2-2-0---0-0-3---3-3-2---2-2-2---2-2-0---0-0-3-3-3-3-2-2-2-2|
D|0--0-0-2---2-2-3---3-3-2---2-2-0---0-0-2---2-2-3-3-3-3-2-2-2-2|
A|-------3---3-3-1---1-1-0---0-0---------3---3-3-1-1-1-1-0-0-0-0|
E|--------------------------------------------------------------|


[Bridge]

C (one strum per a beat, continue this pattern whole way through the bridge)
In your deepest pain
A#
In your weakest hour
C
In your darkest nights
A#             Dm
You are lovely

C
In your deepest pain
A#
In your weakest hour
C
In your darkest nights
A#
You are lovely


[Outro]

  Dm                       C
e|-1-----1-----1-----1-----0-----0-----0-----1|
B|---3-----3-----3-----3-----1-----1-----1----|
G|-----2-----2-----2-----2-----0-----0-----0--|
D|--------------------------------------------|
A|--------------------------------------------|
E|--------------------------------------------|

  Dm              C           A#              A
e|--------0---------------0-----------3----------------0-------|
B|----3-------3-------1-----------3-------3--------3-------3---|
G|--2---2---2---2---0---0---0---3---3---3---3----3---3---3---3-|
D|0---------------2-----------3----------------3---------------|
A|-------------------------------------------------------------|
E|-------------------------------------------------------------|


************************************************************

*   Palm mute
-   hold

************************************************************

            
            
Suggest correction
Creating personal tab
Creating personal tab
You can edit any tab online and save it as your Personal.

You can edit, replace or remove any tab part or add personal notes – all changes will be seen only by you.

Personal tabs can be accessed anytime from any device, even offline.
Learn more »
Give kudos to tab author, rate the tab!
1 2 3 4 5
comments
print report bad tab
guest
You may want to rate the tab now too:
select rating
Wanna post a correction for this tab? Suggest correction