Oops, an error
Loading. Please wait.

Theater Tab

3,726 views 12 this week
no commentswrite comment
1 2 3 4 5
accurate
x 4
add to favorites
launch autoscroll
font size
0
reset
how to read this tab
guitar tuner
Autoscroll
slow
fast
+/-
esc
set tempo
stop
Help us to improve Ultimate-Guitar.com Take our survey!
×
Theater – Icon For Hire

Tuning – Drop D

Intro Rhythm Guitar (Overture)

E|----------------------------------------------|
B|----------------------------------------------|
G|----------------------------------------------|
D|----------------------------------------------|
A|-99999999-1212121212121212-77777777-5555-7777-|
D|-99999999-1212121212121212-77777777-5555-7777-|

Intro Lead Guitar 

E|-------------------------------------------12-12------------------------------------------14-14-|
B|-------14-14-15-15-14-14-------14-14-15-15-------------14-14-15-15-14-14-12-12-14-14-15-15------|
G|-11-11--------------------11-11------------------11-11------------------------------------------|
D|------------------------------------------------------------------------------------------------|
A|------------------------------------------------------------------------------------------------|
D|------------------------------------------------------------------------------------------------|

Intro Rhythm Guitar (with lead)

E|---------------------------------------------|
B|---------------------------------------------|
G|---------------------------------------------|
D|---------------------------------------------|
A|-9999-999-12121212-121212-7777-777-5555-7777-|
D|-9999-999-12121212-121212-7777-777-5555-7777-| x2

Verse

E|------------------------------------------------------------|
B|------------------------------------------------------------|
G|------------------------------------------------------------|
D|------------------------------------------------------------|
A|----------------9999-999-7777-777-5555-555-4444444444444444-|
D|-0-4-5--7--5-4--9999-999-7777-777-5555-555-4444444444444444-|

PreChorus

E|-----------------------------------------------------------------|
B|-----------------------------------------------------------------|
G|-----------------------------------------------------------------|
D|-----------------------------------------------------------------|
A|-9-9-9999-7-7-7777-5-5-5555-4-4-4444-9-9-9999-7-7-7777-5-5555s4~-|
D|-9-9-9999-7-7-7777-5-5-5555-4-4-4444-9-9-9999-7-7-7777-5-5555s4~-|


Chorus

E|--------------------------------------------------------------------|
B|--------------------------------------------------------------------|
G|--------------------------------------------------------------------|
D|----------------------------77777777----------------------77777777--|
A|-99999999-55555555-55555555-7777777s2---99999999-55555555-55555555--|
D|-99999999-55555555----------7777777s2~--99999999-55555555-----------|

Intro

Verse

Chorus_2

E|---------------------------------------------------------|
B|---------------------------------------------------------|
G|----------------------------------------11-11-11-14-9s7--|
D|----------------------------77777777----x--x--x---x-x-x--|
A|-99999999-55555555-55555555-7777777s2~--9--9--9--12-7s5--|
D|-99999999-55555555----------7777777s2~-------------------| (repeat Chorus)

Bridge Rhythm Guitar

E|---------------------------------------------------------------------------|
B|---------------------------------------------------------------------------|
G|---------------------------------------------------------------------------|
D|---------------------------------------------------------------------------|
A|-55-55-55-55-5555-99-99-99-99-9999-00-00-00-00-0000-------------------22~--|
D|-55-55-55-55-5555-99-99-99-99-9999-00-00-00-00-0000-(9999999999999999-22~)-|

Chorus

Ending

E|------------------------|
B|------------------------|
G|------------------------|
D|------------------------|
A|---------12-------------|
D|-9-9-7-9----12-12-11h12-| repeat
Suggest correction
comments
print report bad tab
guest
You may want to rate the tab now too:
select rating
Please do not post tabs as comments. Select "correction" instead!