Oops, an error
Loading. Please wait.

Bad Karma tab

version 1
version 1

Whole song

6,376 views 9 this week
1 commentread comment
1 2 3 4 5
x 14
add to favorites
×
Save as Personal and add changes to this tab that will be seen only by you. Learn more ›
×
You can save this tab as Personal to edit and correct it or add notes. All changes will be seen only by you. Learn more »
launch autoscroll
font size
0
reset
how to read this tab
guitar tuner
edit
Autoscroll
slow
fast
+/-
esc
set tempo
stop
Author
Unregistered
Ida Maria - Bad Karma
From the album "Katla".

Standard tuning

Intro
e|----------------0--------------------------0------0---------------------|
B|----------------3--------------------------3------5---------------------|
G|----------2-3-4---4-3-2-0------------2-3-4---4-3------------------------|
D|---2--------------------------2-------------------------------2b--------|
A|---2--------------------------2-------------------------------2b--------|
E|---0--------------------------0-------------------------------0b--------|
                                                   <- do that
                                                    shit twice  /\
                                                  then end with ||
Verse
e|------------------------------------------|
B|------------------------------------------|
G|------------------------------------------|
D|--5--2----5--7----5--2--------------------|
A|--5--2----5--7----5--2--------------------|
E|--3--0----3--5----3--0--------------------|

Chorus

e|-----------------------------------------------------------------|
B|---------5------------5------------5-------------5---------------|
G|---------6------------6------------6-------------6---------------|
D|----7----7-------7----7-------7----7--------7----7---5b----------|
A|----7------------7------------7-------------7--------5b----------|
E|----5------------5------------5-------------5--------3b----------|

e|-----------------------------------------------------------------|
B|-----------------------------------------------------------------|
G|---------4------------4------------4-------------4---------------|
D|----2----2-------2----2-------2----2--------2----2---------------|
A|----2----2-------2----2-------2----2--------2----2---------------|
E|----0------------0------------0-------------0--------------------|

I don't know the rest.

            
            
Suggest correction
Creating personal tab
Creating personal tab
You can edit any tab online and save it as your Personal.

You can edit, replace or remove any tab part or add personal notes – all changes will be seen only by you.

Personal tabs can be accessed anytime from any device, even offline.
Learn more »
comments
print report bad tab
1 comment total.
0 reply
Folkis_Holten 10 Apr 14, 2015 12:54 PM

didn't like this contribution

guest
Wanna post a correction for this tab? Suggest correction