Oops, an error
Loading. Please wait.

Como Hacer Tab

39 views 1 this week
no commentswrite comment
1 2 3 4 5
3 more votes to show rating
add to favorites
×
Save as Personal and add changes to this tab that will be seen only by you. Learn more ›
×
You can save this tab as Personal to edit and correct it or add notes. All changes will be seen only by you. Learn more »
save as personal
new!
launch autoscroll
font size
0
reset
how to read this tab
guitar tuner
Autoscroll
slow
fast
+/-
esc
set tempo
stop
Intro:
e------------------------------------------------------------------------>
b------------------------------------------------------------------------>
g-9(11)-9-7---7-9-7-9(11)-9-7---7-9-7-9(11)-9-7---7-9-7-9(11)-9-7---7-9-7>
d-----------9-----------------9-----------------9-----------------9------>
a------------------------------------------------------------------------>
E------------------------------------------------------------------------>

e ---------------------->
b ---------------------->
g ---------------------->
d -----------7-7-7-7---->
a -5-7-5-7---7-7-7-7---->
E -3-3-3-3---5-5-5-5---->

D               A      G                             A
Como hacer para dejar, todas esas cosas que me hacen mal
D                   A      G                         A
Como alejar a esos idiotas que solo hablan por hablar
D            A           G                            A
Como hacer para seguir, si sentado ahí no me dejan vivir
D                     A      G                                        A
Como encontrar ese lugar, en donde son mis sueños los que quieren mandar

e --------------------------------------------->
b --------------------------------------------->
g -9(11)-9-7---7-9-7-9(11)-9-7---4-5-4--6-7-6-->
d -----------9-------------------5-5-5--7-7-7-->
a --------------------------------------------->
E --------------------------------------------->    X 2

Como hacer para entender, que mis depresiones son presiones de hacer
Y como hacer para traer a todas esas putas que me vengan a ver
Como está este bar, litros de locura para olvidar
Y como hacer para no hacer, siempre oídos sordos a tu forma de ver
ESTRIBILLO:
G                 A     G                    G
Como alejarme de mí, cuando me miro en un espejo gris
G         A      D
Tratando de no llorar...

SOLO:   D-A-G-D x4
        G-A x4
 e --------------------------------------------->
 b --------------------------------------------->
 g -9(11)-9-7---7-9-7-9(11)-9-7---4-5-4--6-7-6-->
 d -----------9-------------------5-5-5--7-7-7-->
 a --------------------------------------------->
 E --------------------------------------------->X 2
ESTRIBILLO x2
G                 A     G                    G
Como alejarme de mí, cuando me miro en un espejo gris
G         A      D
Tratando de no llorar...

Y reír?


exelente tema!!!!
cualquier cosas pregunten
elzorrito79@
Saludos!.
Suggest correction
Give kudos to tab author, rate the tab!
1 2 3 4 5
comments
print report bad tab
guest
Wanna post a correction for this tab? Suggest correction