Oops, an error
Loading. Please wait.

Rainbow Of Solitudes Tab

40 views 1 this week
no commentswrite comment
1 2 3 4 5
3 more votes to show rating
add to favorites
launch autoscroll
font size
0
reset
how to read this tab
guitar tuner
Autoscroll
slow
fast
+/-
esc
set tempo
stop
Help us to improve Ultimate-Guitar.com Take our survey!
×
Author
Difficulty
novice
Add some reverb and take a liston to the intro




                     Aminor



E----0------------------------------------------|
B--1--------------------------------------------|
G--2--------------------------------------------|
D-2---------------------------------------------|
A-----------------------------------------------|
E-----------------------------------------------|


E-----0-------------------------------|
B------0------------------------------|
G-------------------------------------|
D--2----------------------------------|
A----3--------------------------------|
E-------------------------------------|



                             G


E----------------1----------------------------------------|
B---------------0-----------------------------------------|
G--------------0------------------------------------------|
D---------------------------------------------------------|
A----2----------------------------------------------------|
E---------3-----------------------------------------------|


                         Aminor



E--------------------------------------------------------------------------|
B--1-----------------------------------------------------------------------|
G--2-----------------------------------------------------------------------|
D--2-----------------------------------------------------------------------|
A--------------------------------------------------------------------------|
E--------------------------------------------------------------------------|


                  Strumming for this is down up down up

E----------------0--------------------------------|
B-1-----------------------------------------------|
G----2--------------------------------------------|
D--------3----------------------------------------|
A------3------------------------------------------|
E-------------------------------------------------|


                      Asus 2


E----------------------------------------|
B----------------------------------------|
G---2------------------------------------|
D--2-------------------------------------|
A----------------------------------------|
E----------------------------------------|

                       Eminor


E---------------------------------------------|
B---------------------------------------------|
G---------------------------------------------|
D-2-------------------------------------------|
A--2------------------------------------------|
E---------------------------------------------|


                   Loud Part At 1:12 all Down Strokes



Aminor,C,G, F
Suggest correction
Give kudos to tab author, rate the tab!
1 2 3 4 5
comments
print report bad tab
guest
You may want to rate the tab now too:
select rating
Wanna post a correction for this tab? Suggest correction