Oops, an error
Loading. Please wait.

Let It Go intro tab

version 2
version 2

Intro

  • This version is very accurate compared to others, and is also extremely easy.
  • Mine is the closest one to the original that I have seen.

Whole song

1,156 views 18 this week
1 commentread comment
1 2 3 4 5
x 4
add to favorites
×
Save as Personal and add changes to this tab that will be seen only by you. Learn more ›
×
You can save this tab as Personal to edit and correct it or add notes. All changes will be seen only by you. Learn more »
launch autoscroll
font size
0
reset
how to read this tab
guitar tuner
edit
Autoscroll
slow
fast
+/-
esc
set tempo
stop
About this tab version
This version is very accurate compared to others, and is also extremely easy. Was this info helpful? Yes No
[Intro]

e|2--3-----2--3----2--3-----3--2----0--1-----0--1----------------------|
B|------0----------------0----------------0----------3s1---------------|
G|---------------------------------------------------------------------|
D|----------------------------------0----------------------------------|
A|-----------------0---------------------------------0-----------------|
E|0--------------------------------------------------------------------|


e|2--3-----2--3----2--3-----3--2----0--1-----0--1----------------------|
B|------0----------------0----------------0----------3s1---------------|
G|---------------------------------------------------------------------|
D|----------------------------------0----------------------------------|
A|-----------------0---------------------------------0-----------------|
E|0--------------------------------------------------------------------|

You can use the chords Em-C-G-D in the following verse and F-Am-G-D in the chorus.



************************************

| s  Slide

************************************

            
            
Suggest correction
Creating personal tab
Creating personal tab
You can edit any tab online and save it as your Personal.

You can edit, replace or remove any tab part or add personal notes – all changes will be seen only by you.

Personal tabs can be accessed anytime from any device, even offline.
Learn more »
comments
print report bad tab
1 comment total.
0 reply
Aki Caine 10 Dec 23, 2016 04:17 PM

great and simple, without lack of bass. gj

guest
You may want to rate the tab now too:
select rating
Wanna post a correction for this tab? Suggest correction