Oops, an error
Loading. Please wait.

Retina And The Sky Bass Tab

version 1
version 1

Whole song

Interactive

292 views 1 this week
no commentswrite comment
1 2 3 4 5
3 more votes to show rating
add to favorites
launch autoscroll
font size
0
reset
guitar tuner
Autoscroll
slow
fast
+/-
esc
set tempo
stop
Help us to improve Ultimate-Guitar.com Take our survey!
×
Author
The tab is in Drop D. Also, the last bass tab i did was good but i kind of messed up the
The timings are correct now and the outro also. Look at the end of the page to see
you should know. Enjoy!

Riff 1
G|---------------------------------------------------------|
D|---------------------------------------------------------|
A|---------------------------------------------------------|
D|5-5--5-5-5--0-0--0-0--0-0-0--9-9--9-9-9--7-7--7-7--7-7-7-|

Riff 2
G|----------------------------|
D|----------------------------|
A|----------------------------|
D|5-5--5-5-5--0-0--0-0--0-0-0-|

Riff 3
G|----------------------------------------------------------------|
D|----------------------------------------------------------------|
A|--------------------------7-5-7---------------------------7-5-7-|
D|9-9-9-9-9-9-9-9-9-9-9-9-9-------7-7-7-7-7-7-7-7-7-7-7-7-7-------|

G|----------------------------------------------------------------|
D|----------------------------------------------------------------|
A|--------------------------7-7-7-------------------------5-7-5-7-|
D|5-5-5-5-5-5-5-5-5-5-5-5-5-------4-4-4-4-4-4-4-4-4-4-4-4---------|

Riff 4
G|--------------------------------------------------------------------|
D|--------------------------------------------------------------------|
A|--------------------------------------------------------------------|
D|9-9-9-9-9-9-9-9-9-9-9-9-9-9-9-9-14-14-14-14-14-14-12-12-12-12-12-12-|

G|-----------------------------------------------------------------------|
D|-----------------------------------------------------------------------|
A|-----------------------------------------------------------------------|
D|12-12-12-7-7-7-7-7-7-7-7-7-7-7-7-7-7-7-7-5-5-5-5-5-5-4-4-4-4-4-4-4-4-4-|


ORDER:
Riff 1: x3
Riff 2: x1
Riff 3: x3
Riff 1: x3
Riff 2: x1
Riff 3: x3
Riff 1: x3
Riff 2: x1
Riff 4: x2
Riff 1: x3
Riff 2: x1
Riff 1: x3
Riff 2: x1
End in (D:9)

That is all. Please rate and comment its better than the last tab!!
Suggest correction
Give kudos to tab author, rate the tab!
1 2 3 4 5
comments
print report bad tab
guest
You may want to rate the tab now too:
select rating
Wanna post a correction for this tab? Suggest correction