Oops, an error
Loading. Please wait.

1049 Gotho bass

by IDLES
337 views 30 this week
no commentswrite comment
1 2 3 4 5
2 more votes to show rating
add to favorites
×
Save as Personal and add changes to this tab that will be seen only by you. Learn more ›
×
You can save this tab as Personal to edit and correct it or add notes. All changes will be seen only by you. Learn more »
launch autoscroll
font size
0
reset
guitar tuner
edit
Autoscroll
slow
fast
+/-
esc
set tempo
stop
Standard Tuning
Relatively simple just fast alternate picking

Guitar only on the intro. When the drums come in play:
verse part I
G|-------------------------------------------------|
D|-------------------------------------------------|
A|--99999999999999999999999999999999999999999999999|
E|-------------------------------------------------|

Verse part II
Whooooo!
G|-------------------------------------------------|
D|----------7777-4444---------7777-4444------------|
A|--5555555------------5555555---------------------|
E|-------------------------------------------------|

When the verse starts

My friend is so depressed... 
G|-------------------------------------------------|
D|-------------------------------------------------|
A|--99999999999999999999999999999999999999999999999|
E|-------------------------------------------------|

Then back to:
Whooooo!
G|-------------------------------------------------|
D|----------7777-4444---------7777-4444------------|
A|--5555555------------5555555---------------------|
E|-------------------------------------------------|

Alternate between these until the "Chorus"

1:26
I guess this is as far as she goes
G|-------------------------------------|
D|-------------------------------------|
A|-------------------------------------|  repeat 4 times
E|-55555555555555--9999999999999999999-|

repeat the verse alternating between parts I and II

verse part I
G|-------------------------------------------------|
D|-------------------------------------------------|
A|--99999999999999999999999999999999999999999999999|
E|-------------------------------------------------|

Verse part II
G|-------------------------------------------------|
D|----------7777-4444---------7777-4444------------|
A|--5555555------------5555555---------------------|
E|-------------------------------------------------|

The bass drops out for one measure then into a slighty varied Chorus

I guess this is as far as we go, I guess this is as far as we go
G|-------------------------------------------------|
D|-------------------------------------------------|
A|-99999999999999--555555555555555555--------------|
E|-------------------------------------------------|

I guess this is as far as we go, I guess this is as far as we go
G|-------------------------------------------------------------------------------------|
D|-------------------------------------------------------------11-11-11-11-11-11-11-11-|
A|-99999999999999--555555555555555555---12-12-12-12-12-12-12-12------------------------|
E|-------------------------------------------------------------------------------------|

Outro
Yeah yeah! Yeaaah yeah!
G|-----------------------------------------------|
D|--------------------------------11-11-11-11-11-|
A|-99999--55555---12-12-12-12-12-----------------| Repeat as needed
E|-----------------------------------------------|

            
            
Suggest correction
Creating personal tab
Creating personal tab
You can edit any tab online and save it as your Personal.

You can edit, replace or remove any tab part or add personal notes – all changes will be seen only by you.

Personal tabs can be accessed anytime from any device, even offline.
Learn more »
Give kudos to tab author, rate the tab!
1 2 3 4 5
comments
print report bad tab
guest
You may want to rate the tab now too:
select rating
Wanna post a correction for this tab? Suggest correction