Oops, an error
Loading. Please wait.

Goodnight Tab

version 1
version 1

Whole song

Interactive

428 views 1 this week
no commentswrite comment
1 2 3 4 5
please rate
add to favorites
launch autoscroll
font size
0
reset
how to read this tab
guitar tuner
Tab Pro tools
  • play this tab
  • loop segment
  • change instrument
  • show fretboard
  • metronome
×
Best way to learn
"Goodnight"
Autoscroll
slow
fast
+/-
esc
set tempo
stop
Contributor
----------------------------------------------------------------------------
                             Goodnight - Idlewild
----------------------------------------------------------------------------
Tabbed by: Tom
Email: Tom.Lockett@googlemail.com

Tuning: Eb Ab Db Gb Bb eb

       Guitar 1
eb|--------3-------------------------------0-----0-----------------7--|
Bb|------------------------7-------7-------0-----0---------7-------7--|
Gb|----------------------7-------7-------------------------7-----7----|
Db|----------------4-7-----------7-----------------2-7---7-------7----|
Ab|--5---5-------5---5---------5-----2---2-----2-----5---------5------|
Eb|--3---------3---------------------0---0----------------------------|

eb|----------------------------------------3--------------------------|
Bb|--------5---------------7-------7-----3-----3---3-------7-------7--|
Gb|------5-----5---5-------7-------------------4-----7-----7-------7--|
Db|--5-----------5---7---7-----7-7---------------5---7---7-----7------|
Ab|--3-----------3---5-----------5---5---------------5-----------5----|
Eb|----------------------------------3--------------------------------|

 Play the two bars above 3 times through.
 Then play
eb|--------3---------------3------------------------------------------|
Bb|----------------------------3---3-----(x3)-------------------------|
Gb|--5---5-----5------------------------------------------------------|
Db|--5---5-----5-5-5-5---5-------5------------------------------------|
Ab|--3-------------3-5---5-------5------------------------------------|
Eb|------------------3------------------------------------------------|
 
 As this is playing a second guitar also plays. Listen to the song to 
 hear exactly when it comes in.
        Guitar 2
eb|------------15-----------------------------------------------------|
Bb|--12b-12/13----13-----(x3)-----------------------------------------|
Gb|-------------------------------------------------------------------|
Db|-------------------------------------------------------------------|
Ab|-------------------------------------------------------------------|
Eb|-------------------------------------------------------------------|

 Next play this very quietly and gradually get louder.
        Guitar 1
eb|-------------------------------------------------------------------|
Bb|--------7-------7-------7---7---7----------------------------------|
Gb|--7---------------------7---7--------------------------------------|
Db|--7-----------7-------7-------7------------------------------------|
Ab|--5---5-----5-----5---5--------------------------------------------|
Eb|-------------------------------------------------------------------|

        Guitar 2, also very quietly.
eb|--14-------14------------------------------------------------------|
Bb|--15---------------------------------------------------------------|
Gb|--14---------------------------------------------------------------|
Db|-------------------------------------------------------------------|
Ab|-------------------------------------------------------------------|
Eb|-------------------------------------------------------------------|

 Play the two bars above through once then this again once.
        Guitar 1
eb|--------3-------------------------------0-----0-----------------7--|
Bb|------------------------7-------7-------0-----0---------7-------7--|
Gb|----------------------7-------7-------------------------7-----7----|
Db|----------------4-7-----------7-----------------2-7---7-------7----|
Ab|--5---5-------5---5---------5-----2---2-----2-----5---------5------|
Eb|--3---------3---------------------0---0----------------------------|

eb|----------------------------------------3--------------------------|
Bb|--------5---------------7-------7-----3-----3---3-------7-------7--|
Gb|------5-----5---5-------7-------------------4-----7-----7-------7--|
Db|--5-----------5---7---7-----7-7---------------5---7---7-----7------|
Ab|--3-----------3---5-----------5---5---------------5-----------5----|
Eb|----------------------------------3--------------------------------|

 Then 
eb|--------3----------------------------------------------------------|
Bb|------------------------7-------7-------5---------------7-------7--|
Gb|----------------------7-------7-------5-----5---5-------7----------|
Db|----------------4-7-----------7---5-----------5---7---7-----7-7----|
Ab|--5---5-------5---5---------5-----3-----------3---5-----------5----|
Eb|--3---------3------------------------------------------------------|

 Now the electric guitar comes in.
        Guitar 3
eb|-------------------------------------------------------------------|
Bb|-------------------------------------------------------------------|
Gb|--------------------------------------------------7-----7-----7-77-|
Db|--5-----5-----5-555-----5-----5-552-----2-----2-227-----7-----7-77-|
Ab|--5-----5-----5-555-----5-----5-552-----2-----2-225-----5-----5-55-|
Eb|--3-----3-----3-333-----3-----3-330-----0-----0-00-----------------|

 Play twice, then
eb|-------------------------------------------------------------------|
Bb|-------------------------------------------------------------------|
Gb|--------------------------------------------------5-----5-----5-55-|
Db|--5-----5-----5-555-----5-----5-552-----2-----2-225-----5-----5-55-|
Ab|--5-----5-----5-555-----5-----5-552-----2-----2-223-----3-----3-33-|
Eb|--3-----3-----3-333-----3-----3-330-----0-----0-00-----------------|

 Then return to this once 
eb|-------------------------------------------------------------------|
Bb|-------------------------------------------------------------------|
Gb|--------------------------------------------------7-----7-----7-77-|
Db|--5-----5-----5-555-----5-----5-552-----2-----2-227-----7-----7-77-|
Ab|--5-----5-----5-555-----5-----5-552-----2-----2-225-----5-----5-55-|
Eb|--3-----3-----3-333-----3-----3-330-----0-----0-00-----------------|

 Play the sequence above twice.
 Once it has been played once another electric guitar enters. All
 tremolo picked.
        Guitar 4
eb|-------------------------------------------------------------------|
Bb|--15------------------------------------13-----12---10-------------|
Gb|-------------------------------------------------------------------|
Db|-------------------------------------------------------------------|
Ab|-------------------------------------------------------------------|
Eb|-------------------------------------------------------------------|

eb|-------------------------------------------------------------------|
Bb|--12----------13---15-----13-----12---10---------------------------|
Gb|-------------------------------------------------------------------|
Db|-------------------------------------------------------------------|
Ab|-------------------------------------------------------------------|
Eb|-------------------------------------------------------------------|

eb|-------------------------------------------------------------------|
Bb|--12----------13---15-----13-----12---8----------------------------|
Gb|-------------------------------------------------------------------|
Db|-------------------------------------------------------------------|
Ab|-------------------------------------------------------------------|
Eb|-------------------------------------------------------------------|

eb|-------------------------------------------------------------------|
Bb|--15-------13-------8----------------------------------------------|
Gb|-------------------------------------------------------------------|
Db|-------------------------------------------------------------------|
Ab|-------------------------------------------------------------------|
Eb|-------------------------------------------------------------------|

 The electric part then fades out and the acoustic guitar comes back.
        Guitar 1
eb|--------3----------------------------------------------------------|
Bb|------------------------7-------7-----(x2)-------------------------|
Gb|----------------------7-------7------------------------------------|
Db|----------------4-7-----------7------------------------------------|
Ab|--5---5-------5---5---------5--------------------------------------|
Eb|--3---------3------------------------------------------------------|

 Then
eb|--------3----------------------------------------------------------|
Bb|------------------------7-5-----------(x2)-------------------------|
Gb|----------------------7-----7--------------------------------------|
Db|----------------4-7-----------7------------------------------------|
Ab|--5---5-------5---5------------------------------------------------|
Eb|--3---------3------------------------------------------------------|

 Finish on
eb|-----------|
Bb|-----------|
Gb|-----------|
Db|--5--------|
Ab|--5--------|
Eb|--3--------|


| /  slide up
| \  slide down
| h  hammer-on
| p  pull-off
| ~  vibrato
| +  harmonic
| x  Mute note
============================================================================
comments
We did not receive enough feedback on this tab! Please rate:
print report bad tab
1 2 3 4 5
I want to post or [tab]
guest
You may want to rate the tab now too:
select rating
Please do not post tabs as comments. Select "correction" instead!