Oops, an error
Loading. Please wait.

In Remote Part - Scottish Fiction Tab

version 5
version 5

Interactive

2,117 views 12 this week
no commentswrite comment
1 2 3 4 5
3 more votes to show rating
add to favorites
launch autoscroll
font size
0
reset
how to read this tab
guitar tuner
Autoscroll
slow
fast
+/-
esc
set tempo
stop
Help us to improve Ultimate-Guitar.com Take our survey!
×
----------------------------------------------------------------------------
                  In Remote Part/Scottish Fiction - Idlewild
----------------------------------------------------------------------------
Tabbed by: acoustic-fish
Tuning:EADGBe (standard)

brilliant song. played on two guitars, the timing is slightly off, listen to the song

intro/verse one: guitar one
 e|-----------------|-----------------|-----------------|-----------------|
 B|-----7-------6---|---4-6-6h7p6-4-6-|-----7-------6---|---4-6-6h7p6-4-6-|
 G|-----------------|-----------------|-----------------|-----------------|
 D|---8-------6-----|--4--------------|---8-------6-----|--4--------------|
 A|-6-----6-4-----4-|2----------------|-6-----6-4-----4-|2----------------|
 E|-----------------|-----------------|-----------------|-----------------|

guitar two
 e|-----------------|-----------------|-----------------|-----------------|
 B|-----------------|-----------------|-----------------|-----------------|
 G|-----------------|-----------------|-----------------|-----------------|
 D|-----------------|-----------------|-----------------|-----------------|
 A|-6-----9---------|---6-8-8h9p8-6-8-|-6-----9---------|---6-8-8h9p8-6-8-|
 E|-----------------|7----------------|-----------------|7----------------|
                                                                  in the...
repeat three times
lyrics:
in the beginning there were answers
then they came along and changed
all these questions and their answers
seemed to change

chorus one: guitar one
 e|-----------------|-----------------|-----------------|-----------------|
 B|------11--11--9--|-----11--11--9-7-|-----11-----7----|----4---4---2--0-|
 G|-----------------|-----------------|-----------------|-----------------|
 D|----11--11--11---|---11--11--11----|---11-----8------|--4---4---4------|
 A|--9--------------|-9---------------|--9-----6------2-|-----------------|
 E|-----------------|-----------------|-----------------|-----------------|

guitar two
 e|-----------------|-----------------|-----------------|-----------------|
 B|-----------------|-----------------|-11-9-7-11--9-7--|11-9-7-11--9-7-9-|
 G|-----------------|-----------------|-----------------|-----------------|
 D|-----------------|-----------------|-----------------|-----------------|
 A|-----------------|-----------------|-----------------|-----------------|
 E|-----------------|-----------------|-----------------|-----------------|
                        so i...      ...find...
repeat the last two bars four times. on the last bar, change guitar two to:
|-------------------|
|11-9-7-11--9-7-9-7-|
|-------------------|
|-------------------|
|-------------------|
|-------------------|
lyrics:
so i'll wait 'till i find the remote part of your heart
nowhere else will let us choose a comfortable start

verse two:
same as verse one, played five times
lyrics:
We stop in every passing place
To watch the world move faster than we do
Watch it pass with our eyes closed
the way we usually choose to

chorus two:
same as chorus one, but play the second two bars a total of eight times
lyrics:
So I’ll wait ‘til I find the remote part of your heart
When no where else will let us choose a comfortable start
And even if the breath between us smells of alcohol
Call it confusion in the best way possible

poem: this part is played while a poem is read, by edwin morgan.
guitar one:
 e|-6---6---6---2---|-----2---2---7---|-----7---7---7---|-7---7---7---7---|
 B|-7---7---7---3---|-----3---3---8---|-----8---8---8---|-8---8---8---8---|
 G|-8---8---8---4---|-----4---4---9---|-----9---9---9---|-9---9---9---9---|
 D|-8---8---8---4---|-----4---4---9---|-----9---9---9---|-9---9---9---9---|
 A|-6---6---6---2---|-----2---2---7---|-----7---7---7---|-7---7---7---7---|
 E|-----------------|-----------------|-----------------|-----------------|

guitar two:
 e|--9---9---9---9--|-----------------|-----------------|-------------7---|
 B|-----------------|-----9-------10--|-----7---10---7--|-10--------------|
 G|-----------------|-----------------|-----------------|-----------------|
 D|-----------------|-----------------|-----------------|-----------------|
 A|-----------------|-----------------|-----------------|-----------------|
 E|-----------------|-----------------|-----------------|-----------------|
play twice before the poem starts, and then eight times during the poem after the poem, 
four times.

poem:
It isn’t in the mirror, it isn’t on the page
It’s a red hearted vibration
Pushing through the walls of dark imagination
Finding no equation
There’s a red road rage, but it’s not road rage
It’s asylum seekers engulfed by a grudge
Scottish friction, Scottish fiction
It isn’t in the castle, it isn’t in the mist
It’s a calling of the waters as they break to show
The new black death with reactors aglow
Do you think your security will keep you in purity
You will not shake us off
Above or below
Scottish friction, Scottish fiction

outro: guitar one:
 e|-6---6---6---2---|-----2---2---7---|-----7---7---7---|-7---7---7---7---|
 B|-7---7---7---3---|-----3---3---8---|-----8---8---8---|-8---8---8---8---|
 G|-8---8---8---4---|-----4---4---9---|-----9---9---9---|-9---9---9---9---|
 D|-8---8---8---4---|-----4---4---9---|-----9---9---9---|-9---9---9---9---|
 A|-6---6---6---2---|-----2---2---7---|-----7---7---7---|-7---7---7---7---|
 E|-----------------|-----------------|-----------------|-----------------|

guitar two:
 e|-8---------------|-------------8---|-----8---8---8---|-8---8---8---8---|
 B|-----10--10--10--|-----11----------|-----------------|-----------------|
 G|-----------------|-----------------|-----------------|-----------------|
 D|-----------------|-----------------|-----------------|-----------------|
 A|-----------------|-----------------|-----------------|-----------------|
 E|-----------------|-----------------|-----------------|-----------------|
play four times, then:

guitar one
 e|-6---6---6---2---|-----2---2---7---|-----7---7---7---|-7---7---7---7---|
 B|-7---7---7---3---|-----3---3---8---|-----8---8---8---|-8---8---8---8---|
 G|-8---8---8---4---|-----4---4---9---|-----9---9---9---|-9---9---9---9---|
 D|-8---8---8---4---|-----4---4---9---|-----9---9---9---|-9---9---9---9---|
 A|-6---6---6---2---|-----2---2---7---|-----7---7---7---|-7---7---7---7---|
 E|-----------------|-----------------|-----------------|-----------------|

guitar two
 e|-8---------------|-------------8---|-----8---8---8---|-10--10--10--10--|
 B|-----10--10--10--|-----11----------|-----------------|-----------------|
 G|-----------------|-----------------|-----------------|-----------------|
 D|-----------------|-----------------|-----------------|-----------------|
 A|-----------------|-----------------|-----------------|-----------------|
 E|-----------------|-----------------|-----------------|-----------------|
play four times, then:

guitar one: (let the chords ring)
 e|--6----------9---|-------------2---|-----------------|-----------------|
 B|--7----------10--|-------------3---|-----------------|-----------------|
 G|--8----------11--|-------------4---|-----------------|-----------------|
 D|--8----------11--|-------------4---|-----------------|-----------------|
 A|--6----------9---|-------------2---|-----------------|-----------------|
 E|-----------------|-----------------|-----------------|-----------------|

hope that wasnt too hard to understand. there might be a few changes in the chord 
for guitar one in the outro, but to keep it simple, i kept it the same.
enjoy!

| /  slide up
|   slide down
| h  hammer-on
| p  pull-off
| ~  vibrato
| +  harmonic
| x  Mute note
============================================================================
Suggest correction
Give kudos to tab author, rate the tab!
1 2 3 4 5
comments
print report bad tab
guest
You may want to rate the tab now too:
select rating
Wanna post a correction for this tab? Suggest correction