Oops, an error
Loading. Please wait.

In Remote Part - Scottish Fiction Tab

version 6
version 6

Interactive

658 views 1 this week
1 commentread comment
1 2 3 4 5
please rate
add to favorites
launch autoscroll
font size
0
reset
how to read this tab
guitar tuner
Tab Pro tools
  • play this tab
  • loop segment
  • change instrument
  • show fretboard
  • metronome
×
Best way to learn
"In Remote Part - Scottish Fiction"
Autoscroll
slow
fast
+/-
esc
set tempo
stop
Contributor
                             In Remote Part/Scottish Fiction - Idlewild
----------------------------------------------------------------------------
Tabbed by: Tom
Email: Tom.Lockett@googlemail.com

This is the same as my Guitar Pro tab for people who don't have it. 
I have tried to space it so it gives a sense of the timing.
Send corrections. 

Tuning: Standard
Intro: Guitar 1
e|------------------------------------------------------------|
B|--------7-----------6-----------4--6--6-7-6--4--6-----(x6)--|
G|-----------8-----------6------------------------------------|
D|-----8-----------6-----------4------------------------------|
A|--6-----------4-----------2---------------------------------|
E|------------------------------------------------------------|

       Guitar 2
e|------------------------------------------------------------|
B|------------------------------------------------------------|
G|--3-----------6---------------------------------------------|
D|--------------------------4-----4--6--6-8-6--4--6-----(x6)--|
A|------------------------------------------------------------|
E|------------------------------------------------------------|

 Next: Guitar 1
e|------------------------------------------------------------|
B|-------11----11----9-----------11----11----9----------------|
G|------------------------------------------------------------|
D|---/11----11----11----11----/11----11----11----11-----------|
A|------------------------------------------------------------|
E|------------------------------------------------------------|

       Guitar 2
e|------------------------------------------------------------|
B|------------------------------------------------------------|
G|------------------------------------------------------------|
D|--4---------------------------------------------------------|
A|------------------------------------------------------------|
E|------------------------------------------------------------|

 Then: Guitar 1
e|--------6----------4----------------------------------------|
B|------------------------------------------------------------|
G|----------------------6--------4-----4-----2--0-----(x3)----|
D|-----8----------6-----------4-----4-----4-------------------|
A|--6--------4-------------2----------------------------------|
E|------------------------------------------------------------|

For the fourth time just play this.
e|--------6----------4----------------------------------------|
B|------------------------------------------------------------|
G|----------------------6-------------------------------------|
D|-----8----------6-------------------------------------------|
A|--6--------4-------------2----------------------------------|
E|------------------------------------------------------------|

       Guitar 2
e|-/6--4--2--6----4--2----/6--4--2--6----4--2--4/-----(x3)----|
B|------------------------------------------------------------|
G|------------------------------------------------------------|
D|------------------------------------------------------------|
A|------------------------------------------------------------|
E|------------------------------------------------------------|

 Again, the fourth time is slightly different
e|-/6--4--2--6----4--2--4--2----------------------------------|
B|------------------------------------------------------------|
G|------------------------------------------------------------|
D|------------------------------------------------------------|
A|------------------------------------------------------------|
E|------------------------------------------------------------|

 Play the intro part again.
       Guitar 1
e|------------------------------------------------------------|
B|--------7-----------6-----------4--6--6-7-6--4--6-----(x4)--|
G|-----------8-----------6------------------------------------|
D|-----8-----------6-----------4------------------------------|
A|--6-----------4-----------2---------------------------------|
E|------------------------------------------------------------|

 Only play four times, for the fifth time there is a slight
 variation      
e|------------------------------------------------------------|
B|--------7-----------6-----------4--6--7--6--4--6------------|
G|-----------8-----------6------------------------------------|
D|-----8-----------6-----------4------------------------------|
A|--6-----------4-----------2---------------------------------|
E|------------------------------------------------------------|

 The sixth time is also very slightly different.
e|------------------------------------------------------------|
B|--------7-----------6-----------4--6--7--6--4---------------|
G|-----------8-----------6------------------------------------|
D|-----8-----------6-----------4------------------------------|
A|--6-----------4-----------2---------------------------------|
E|------------------------------------------------------------|

       Guitar 2, exactly the same as the intro.
e|------------------------------------------------------------|
B|------------------------------------------------------------|
G|--3-----------6---------------------------------------------|
D|--------------------------4-----4--6--6-8-6--4--6-----(x6)--|
A|------------------------------------------------------------|
E|------------------------------------------------------------|

       Bass
G|------------------------------------------------------------|
D|------------------------------------------------------------|
A|--6------6--4------4--2------2--2----2--2-------------------|
E|------------------------------------------------------------|

 Then play this part again.
       Guitar 1
e|------------------------------------------------------------|
B|-------11----11----9-----------11----11----9----------------|
G|------------------------------------------------------------|
D|---/11----11----11----11----/11----11----11----11-----------|
A|------------------------------------------------------------|
E|------------------------------------------------------------|

       Guitar 2
e|------------------------------------------------------------|
B|------------------------------------------------------------|
G|------------------------------------------------------------|
D|--4---------------------------------------------------------|
A|------------------------------------------------------------|
E|------------------------------------------------------------|
       Bass
G|------------------------------------------------------------|
D|-/4--------4------------------------------------------------|
A|------------------------------------------------------------|
E|------------------------------------------------------------|

 Then play this part again.
       Guitar 1
e|--------6----------4----------------------------------------|
B|------------------------------------------------------------|
G|----------------------6--------4-----4-----2--0-----(x7)----|
D|-----8----------6-----------4-----4-----4-------------------|
A|--6--------4-------------2----------------------------------|
E|------------------------------------------------------------|

 On the eighth time play something like this.
e|--------6----------4----------------2-------2---------------|
B|-------------------------------4----4----4--4---------------|
G|----------------------6--------8---------8------------------|
D|-----8----------6-----------4-------------------------------|
A|--6--------4-------------2----------------------------------|
E|------------------------------------------------------------|

       Guitar 2
e|-/6--4--2--6----4--2----/6--4--2--6----4--2--4/-----(x8)----|
B|------------------------------------------------------------|
G|------------------------------------------------------------|
D|------------------------------------------------------------|
A|------------------------------------------------------------|
E|------------------------------------------------------------|

       Bass
G|------------------------------------------------------------|
D|--4--4--4---------------------------------------------------|
A|-----------6----6--6--4--2--2--2--2----2--2--2-----(x5)-----|
E|------------------------------------------------------------|

 The sixth time play
G|------------------------------------------------------------|
D|--4--4--4-------------9----9--9--9--9--8--6--4--------------|
A|-----------6----6--6----------------------------------------|
E|------------------------------------------------------------|

 Then 
G|------------------------------------------------------------|
D|--4--4--4---------------------------------------------------|
A|-----------6----6--6--4--2--2--2--2----2--2--2-----(x2)-----|
E|------------------------------------------------------------|

 The electric guitars come in now. There are 3 parts.
 Also bass and 2 piano parts.
       Guitar 3, stays the same until the end
e|------------------------------------------------------------|
B|------------------------------------------------------------|
G|--8---------------4-----(x22)-------------------------------|
D|--8------4--------4-----------------------------------------|
A|--6------4--------2-----------------------------------------|
E|---------2--------------------------------------------------|

       Guitar 4, this is all tremolo picked
e|------------------------------------------------------------|
B|--11------7----6----7-----(x14)-----------------------------|
G|------------------------------------------------------------|
D|------------------------------------------------------------|
A|------------------------------------------------------------|
E|------------------------------------------------------------|

 After that play
e|------------------------------------------------------------|
B|--11--------12----14--------------14-----(x4)---------------|
G|------------------------------------------------------------|
D|------------------------------------------------------------|
A|------------------------------------------------------------|
E|------------------------------------------------------------|
 
 Then finally
e|------------------------------------------------------------|
B|--11--------12----14----------16-----(x4)-------------------|
G|------------------------------------------------------------|
D|------------------------------------------------------------|
A|------------------------------------------------------------|
E|------------------------------------------------------------|

 The fifth guitar enters 8 bars after Edwin Morgan's poem 
 finishes. Again it is all tremolo picked.
       Guitar 5
e|------------------------------------------------------------|
B|------------------------------------------------------------|
G|------------------------------------------------------------|
D|------------------------------------------------------------|
A|--13------9-------------------------------------------------|
E|-------------------7-----(x4)-------------------------------|
 
 Then 
e|------------------------------------------------------------|
B|------------------------------------------------------------|
G|--15------11-------16---------------------------------------|
D|------------------------------------------------------------|
A|--13------9--------14-----(x4)------------------------------|
E|------------------------------------------------------------|

       Bass, stays the same until the end.
G|------------------------------------------------------------|
D|------------------------------------------------------------|
A|--6--6--6-------------2----2--2--2--2--2--2--2-----(x22)----|
E|-----------2----2--2----------------------------------------|

 The piano plays something like this until Edwin Morgan
 finishes his poem.
       Piano 1
e|--6-------9-------------2-----------------------------------|
B|--7-------11------------4-----------------------------------|
G|--8----8--11----11--10--4----8--8-----(x10)-----------------|
D|--8-------11------------4-----------------------------------|
A|--6-------9-------------2-----------------------------------|
E|------------------------------------------------------------|
 
 Then it changes slightly.
       Piano 1
e|--6-------9-------------2-----------------------------------|
B|--7-------11------------4-----------------------------------|
G|--8----8--11----11--10--4----8--8----8--6--3--6-----(x12)---|
D|--8-------11------------4-----------------------------------|
A|--6-------9-------------2-----------------------------------|
E|------------------------------------------------------------|

 A while after the poem finishes some very faint high notes
 are played on another piano I think. 
 They are a bit random but are something like this.

e|----------16----18------------------------------------------|
B|------------------------------------------------------------|
G|------------------------------------------------------------|
D|------------------------------------------------------------|
A|------------------------------------------------------------|
E|------------------------------------------------------------|

e|------18----16----14----------------------------------------|
B|------------------------------------------------------------|
G|------------------------------------------------------------|
D|------------------------------------------------------------|
A|------------------------------------------------------------|
E|------------------------------------------------------------|

e|------------14--16--14--------------------------------------|
B|------------------------------------------------------------|
G|------------------------------------------------------------|
D|------------------------------------------------------------|
A|------------------------------------------------------------|
E|------------------------------------------------------------|

e|--16--18----------------------------------------------------|
B|------------------------------------------------------------|
G|------------------------------------------------------------|
D|------------------------------------------------------------|
A|------------------------------------------------------------|
E|------------------------------------------------------------|

e|--14------18----14----11------------------------------------|
B|------------------------------------------------------------|
G|------------------------------------------------------------|
D|------------------------------------------------------------|
A|------------------------------------------------------------|
E|------------------------------------------------------------|

e|--14----16----18--------23----------------------------------|
B|------------------------------------------------------------|
G|------------------------------------------------------------|
D|------------------------------------------------------------|
A|------------------------------------------------------------|
E|------------------------------------------------------------|

e|--------18--16----14--9-------------------------------------|
B|------------------------------------------------------------|
G|------------------------------------------------------------|
D|------------------------------------------------------------|
A|------------------------------------------------------------|
E|------------------------------------------------------------|

e|--------18--16--14----11------------------------------------|
B|------------------------------------------------------------|
G|------------------------------------------------------------|
D|------------------------------------------------------------|
A|------------------------------------------------------------|
E|------------------------------------------------------------|

 The piano then ends on
e|--6------2--------2-----------------------------------------|
B|--7------2--------4-----------------------------------------|
G|--8------3--------4-----------------------------------------|
D|--8------4--------4-----------------------------------------|
A|--6------4--------2-----------------------------------------|
E|---------2--------------------------------------------------|

| /  slide up
| \  slide down
| h  hammer-on
| p  pull-off
| ~  vibrato
| +  harmonic
| x  Mute note
============================================================================
comments
We did not receive enough feedback on this tab! Please rate:
print report bad tab
1 2 3 4 5
1 comment total.
0 reply
Idle_Wild wrote on June 26 2007, 12:22 pm

I made a mistake. It should be
e|--------6----------4----------------------------------------|
B|-------------------------------4-----4-----2--0-------------|
G|----------------------6-------------------------------------|
D|-----8----------6-----------4-----4-----4-------------------|
A|--6--------4-------------2----------------------------------|
E|------------------------------------------------------------|
and not
e|--------6----------4----------------------------------------|
B|------------------------------------------------------------|
G|----------------------6--------4-----4-----2--0-------------|
D|-----8----------6-----------4-----4-----4-------------------|
A|--6--------4-------------2----------------------------------|
E|------------------------------------------------------------|

I want to post or [tab]
guest
You may want to rate the tab now too:
select rating
Please do not post tabs as comments. Select "correction" instead!