Oops, an error
Loading. Please wait.

In Remote Part Scottish Fiction Tab

version 1
version 1

Whole song

Interactive

1,583 views 1 this week
1 commentread comment
1 2 3 4 5
please rate
add to favorites
launch autoscroll
font size
0
reset
how to read this tab
guitar tuner
Tab Pro tools
  • play this tab
  • loop segment
  • change instrument
  • show fretboard
  • metronome
×
Best way to learn
"In Remote Part Scottish Fiction"
Autoscroll
slow
fast
+/-
esc
set tempo
stop
--------------------------------------------------------------------------
          In remote part / scottish fiction -  I D L E W I L D
-------------------------------------------------------------------------------

By:lewis herd

 Riff 1

  guitar 1
e|-------------------------------------------------------------|
B|------7---------6---------4-6-6h7p6-4-6----------------------|
G|------8---------6--------------------------------------------|
D|----8---------6---------4------------------------------------|  X 6
A|--6-----6---4-----4---2--------------------------------------|
E|-------------------------------------------------------------|

  guitar 2
e|---------------------------------------------|
B|---------------------------------------------|
G|---------------------------------------------|
D|--8--------11--------------------------------|  X 5
A|----------------------9---9-11-11h13p11-9-11-|
E|---------------------------------------------|

on the 6th time do this.
e|------------------------------------------------|
B|------------------------------------------------|
G|------------------------------------------------|
D|--8--------11-----------------------------------|
A|----------------------9---9-11-11h13p11-9-11-9--|
E|------------------------------------------------|

riff 2

guitar 1    ( just before " so ill wait till i find...")
e|---------------------------------------|
B|------11--11--9-------11--11--9--------|
G|---------------------------------------|
D|----11--11--11-11---11--11--11-11------|x1
A|--9---------------9--------------------|
E|---------------------------------------|


riff 3

guitar one
e|-----6------4---|----------------------------|
B|-----7------6---|-----4---4---2-0------------|
G|-----8------6---|----------------------------|
D|---8------6-----|---4---4---4----------------|x3
A|-6------4-------|-2--------------------------|
E|----------------|----------------------------|

after 3 times do it once up to the line and end with   d|-4-
                                                       a|-2-

guitar 2
while gtr 1 plays that gtr 2 plays
e|------------------------------------------------|
B|---9s11-9-7-9s11-9-7-9s11-9-7--9s11-9-7-9--(7)--|
G|------------------------------------------------|x4
D|------------------------------------------------|
A|------------------------------------------------|
E|------------------------------------------------|

play the note in brackets on the 4th time only.


after all that the bass and drums come in and it goes back to riff 1 , then riff 2 , and 3


then its the louder bit.
guitar 1
e|------------------------|
B|------------------------|
G|--8------11-------------|
D|--8------11----9--------|
A|--6-------9----9--------|
E|---------------7--------|

those chords  over and over for gtr 1.

guitar 2

e|------------------------------------------------------|
B|------------------------------------------------------|
G|--15-15-15-15--10-10-11-11-11-11-11-11-11-11----------|   x a lot .while edwin morgan reads the poem.
D|------------------------------------------------------|
A|------------------------------------------------------|
E|------------------------------------------------------|

oooorrrrr   you could do octavey things instead.
e|-------------------------------------------------------|
B|-------------------------------------------------------|
G|--15-15-15-15--10-10-11-11-11-11-11-11-11-11-----------|
D|---x--x--x--x---x--x--x--x--x--x--x--x--x--x-----------|
A|--11-11-11-11---8--8--9--9--9--9--9--9--9--9-----------|
E|-------------------------------------------------------|

and then
e|---------------------------------------------------------------------------|
B|---------------------------------------------------------------------------|
G|--15-15-15-15--16-16--18-18-18-18-18-18-18-18------------------------------|
D|---------------------------------------------------------------------------| x a lot
A|---------------------------------------------------------------------------|
E|---------------------------------------------------------------------------|
 ...or as octaves

e|---------------------------------------------------------------------------|
B|---------------------------------------------------------------------------|
G|--15-15-15-15--16-16--18-18-18-18-18-18-18-18------------------------------|
D|---x--x--x--x---x--x---x--x--x--x--x--x--x--x------------------------------|
A|--11-11-11-11--12-12--14-14-14-14-14-14-14-14------------------------------|
E|---------------------------------------------------------------------------|

then
e|---------------------------------------------------------------------------|
B|---------------------------------------------------------------------------|
G|--15-15-15-15--16-16--18-18-18-18-18-18-18-18--20-20-20-20-20-20-20-20-20--|
D|---x--x--x--x---x--x---x--x--x--x--x--x--x--x---x--x--x--x--x--x--x--x--x--|
A|--11-11-11-11--12-12--14-14-14-14-14-14-14-14--18-18-18-18-18-18-18-18-18--|
E|---------------------------------------------------------------------------|

you can tremlo all that gtr 2 part if you like. it sounds quite good that way.


thats it.
email me any comments / corrections.  lewis_herd@hotmail.com

===============================================================================
comments
We did not receive enough feedback on this tab! Please rate:
print report bad tab
1 2 3 4 5
1 comment total.
0 reply
IndieLegend25 wrote on June 1 2010, 08:45 pm

Great tab - no problems with it

great tune aswell

I want to post or [tab]
guest
You may want to rate the tab now too:
select rating
Please do not post tabs as comments. Select "correction" instead!