Oops, an error
Loading. Please wait.

Last Night I Missed All The Fireworks Tab

301 views 1 this week
no commentswrite comment
1 2 3 4 5
please rate
add to favorites
launch autoscroll
font size
0
reset
how to read this tab
guitar tuner
Autoscroll
slow
fast
+/-
esc
set tempo
stop
Help us to improve Ultimate-Guitar.com Take our survey!
×
Contributor
Difficulty
novice
iDLEWiLD


Last Night I Missed All The Fireworks

Guitar tuned down a step (D, G, C, F, A, D)

Intro Riff
D-----------------------------|
A-----------------------------|
F-----------------------------|
C--7--7--9-9-9-9--11-11-11-9--|
G--0--0--0-0-0-0--9--9--9--7--|
D-----------------------------| Play x 1

Verse Riff
Last night I missed all the fireworks...
D-----------------------------------|--------------------------------|
A-----------------------------------|--------------------------------|
F-----------------------------------|--7--7--7-7-7-7--7--7--7-7-7-7--|
C--7--7--9-9-9-9--11-11-11-9--9-9-9-|--7--7--7-7-7-7--7--7--7-7-7-7--|
G--0--0--0-0-0-0--9--9--9--7--7-7-7-|--5--5--5-5-5-5--5--5--5-5-5-5--|
D-----------------------------------|--------------------------------| Play x 2
  x 3                                 x 1

Chorus Riff
D------------------------------|--------------------------------|
A------8--8-8-8----------------|--------------------------------|
F------7--7-7-7--7-x-9--9-9-9--|--7--7--7-7-7-7--7--7--7-7-7-7--|
C--7-x-5--5-5-5--7-x-9--9-9-9--|--7--7--7-7-7-7--7--7--7-7-7-7--|
G--7-x-----------5-x-7--7-7-7--|--5--5--5-5-5-5--5--5--5-5-5-5--|
D--5-x-------------------------|--------------------------------| Play x 1
  x 3                            x 1

Then play Verse Riff x 2

Break A Riff
D-----------------------------------------------------------|
A-----------------------------------------------------------|
F-----------------------------------------------------------|
C--7--7--7-7-7-7-5--5--5-5-5-5-3--3--3-3-3-3-2--2--2-2-2-2--|
G--0--0--0-0-0-0-0--0--0-0-0-0-0--0--0-0-0-0-0--0--0-0-0-0--|
D-----------------------------------------------------------| Play x 2

Break B Riff
D---------------------------------|
A---------------------------------|
F------10--10-10-10------9-8-x-x--|
C--7-x-10--10-10-10-10-x-9-8-x-x--|
G--7-x-8---8--8--8--10-x-7-6-x-x--|
D--5-x--------------8--x----------| Play x 4

Then play Verse Riff x 2
Then play Break B Riff x 4
End on:
C--7~--|
G--7~--|
D--5~--|

comments
We did not receive enough feedback on this tab! Please rate:
print report bad tab
1 2 3 4 5
I want to post or [tab]
guest
You may want to rate the tab now too:
select rating
Please do not post tabs as comments. Select "correction" instead!