Oops, an error
Loading. Please wait.

Live In A Hiding Place Tab

version 1
version 1

Whole song

Interactive

12,139 views 9 this week
4 commentsread comments
1 2 3 4 5
accurate
x 12
add to favorites
launch autoscroll
font size
0
reset
how to read this tab
guitar tuner
Tab Pro tools
  • play this tab
  • loop segment
  • change instrument
  • show fretboard
  • metronome
×
Best way to learn
"Live In A Hiding Place"
Autoscroll
slow
fast
+/-
esc
set tempo
stop
idlewild
Live In A Hiding Place
tabbed by ewan m

*Guitar tuned down half a step 

Verse Riff
There are times that i should try...
Eb-----------------------------------|
Bb-----------------------------------|
Gb------0-----0---------0-----0------|
Db----0-----0-----0---7-----7-----7--|
Ab--------3-----2---5-----5-----5----|
Eb--3--------------------------------| Play x 10

Chorus Riff
It's when I, I live in a hiding place...
Eb-----------------------------------|
Bb-----------------------------------|
Gb------0-----0---------0-----0------|
Db----0-----0-----0---0-----0-----0--|
Ab--3-----5-----5---7-----5-----5----|
Eb-----------------------------------| Play x 12

Break Riff
Eb-----------------------------------|
Bb-----------------------------------|
Gb------0-----0---------0-----0------|
Db----0-----0-----0---7-----7-----7--|
Ab--5-----3-----2---5-----5-----5----|
Eb-----------------------------------| Play x 2

Verse Riff
Eb-----------------------------------|
Bb-----------------------------------|
Gb------0-----0---------0-----0------|
Db----0-----0-----0---7-----7-----7--|
Ab--------3-----2---5-----5-----5----|
Eb--3--------------------------------| Play x 8

Chorus Riff
It's when I, I live in a hiding place...
Eb-----------------------------------|
Bb-----------------------------------|
Gb------0-----0---------0-----0------|
Db----0-----0-----0---0-----0-----0--|
Ab--3-----5-----5---7-----5-----5----|
Eb-----------------------------------| Play x 8

Eb-------------7h8-7---------|
Bb-8---10--10--------8-------|
Gb----------------------7----| 
Db---------------------------|
Ab---------------------------|
Eb---------------------------|Play x 8

Verse Riff 2
Eb-----------------------------------|
Bb-----------------------------------|
Gb------0-----0---------0-----0------|
Db----0-----0-----0---0-----0-----0--|
Ab--------5-----5---7-----5-----5----|
Eb--3--------------------------------| Play x 10

Break Riff
Eb-----------------------------------|
Bb-----------------------------------|
Gb------0-----0---------0-----0------|
Db----0-----0-----0---7-----7-----7--|
Ab--5-----3-----2---5-----5-----5----|
Eb-----------------------------------| Play x 4
comments
print report bad tab
4 comments total. Showing first comments.
0 reply
PeteG wrote on July 18 2003, 12:00 am

this is wrong

0 reply
aedan wrote on November 14 2004, 12:00 am

excellent tab... i just wish they wouldn't play everything tuned down half a step, i'm sick of re-tuning my guitar to play along!!!!!!!!

0 reply
aedan wrote on November 14 2004, 12:00 am

just after this part:
Eb-------------7h8-7---------|
Bb-8---10--10--------8-------|
Gb----------------------7----|

when it goes back to the main riff,
Eb-----------------------------------|
Bb-----------------------------------|
Gb------0-----0---------0-----0------|
Db----0-----0-----0---0-----0-----0--|
Ab--------5-----5---7-----5-----5----|
Eb--3--------------------------------|

there's another guitar picking around a D-shape starting at the 7th fret, similar to what you have above.

I want to post or [tab]
guest
You may want to rate the tab now too:
select rating
Please do not post tabs as comments. Select "correction" instead!