Oops, an error
Loading. Please wait.

Love Steals Us From Loneliness Bass Tab

218 views 1 this week
1 commentread comment
1 2 3 4 5
please rate
add to favorites
launch autoscroll
font size
0
reset
guitar tuner
Autoscroll
slow
fast
+/-
esc
set tempo
stop
Help us to improve Ultimate-Guitar.com Take our survey!
×
Contributor
Difficulty
novice
Idlewild - Love Steals Us From Loneiness. Bass tab.

Standard tuning, nothing special.
Quite an easy and fun song to play along to! Love the verse riff.
I tabbed this completely by ear since there was no bass tab for this song at the time of 
posting this.
Took me a few hours to get the main parts down but struggled a bit with the intro,
so that took me a few more days to wrap my head around what was being played in amongst 
all the distortion!
I'm pretty sure it's correct, maybe a few pull-off's at most.

I recommend you actually DON'T learn from this tab.
Go put the song on repeat and just learn it bit by bit by ear.
Intro, verse, then chorus.
It will obviously take longer to learn but it's much more rewarding (and beneficial to 
your musical ear)
than reading off a sheet posted on the internet.


It's a good feeling, go try it.



Intro

G|----------------------------------|
D|---------------6-8-8-8-6-6-6-4-4--|
A|-6-6-6-6-6-6-6--------------------|
E|----------------------------------|

G|----------------------------------|
D|---------------4-6-6-6-4-4-4------|
A|-4-4-4-4-4-4-4---------------4-4--|
E|----------------------------------|

G|----------------------------------|
D|---------------6-8-8-8-6-6-6-4-4--|
A|-6-6-6-6-6-6-6--------------------|
E|----------------------------------|

G|---------------------------6-6-8--|
D|---------------4-6-6-6-8-8--------|
A|-4-4-4-4-4-4-4--------------------|
E|----------------------------------|



Verse

G|---------------------------------------------------------|
D|---------------------------------------------------------|
A|-66-6-----4-66-6-------44-4-------44-4-------------------|
E|------4-6--------4-6-4------4-6-4------------------------|


G|---------------------------------------------------------|
D|---------------------------------------------------------|
A|-----4-66-6-----4-66-6-------44-4-------44-4-------------|
E|-4-6--------4-6--------4-6-4------4-6-4------------------|


G|---------------------------------------------------------|
D|------------------------------------------------4-4-3-3--|
A|-----4-66-6-----4-66-6-------44-4-------4-4-4-4----------|
E|-4-6--------4-6--------4-6-4------4-6-4------------------|



Chorus

G|---------------------------------------------------------------|
D|---------------3-4-4-4-4-4-4-4-3-------------------------------|
A|-6-6-6-6-6-6-6-------------------4-4-4-4-4-4-4-4------------4--|
E|-------------------------------------------------6-6-6-4-44----| x2



Verse

G|---------------------------------------------------------|
D|---------------------------------------------------------|
A|-66-6-----4-66-6-------44-4-------44-4-------------------|
E|------4-6--------4-6-4------4-6-4------------------------|


G|---------------------------------------------------------|
D|---------------------------------------------------------|
A|-----4-66-6-----4-66-6-------44-4-------44-4-------------|
E|-4-6--------4-6--------4-6-4------4-6-4------------------|


G|---------------------------------------------------------|
D|------------------------------------------------4-4-3-3--|
A|-----4-66-6-----4-66-6-------44-4-------4-4-4-4----------|
E|-4-6--------4-6--------4-6-4------4-6-4------------------|



Chorus

G|---------------------------------------------------------------|
D|---------------3-4-4-4-4-4-4-4-3-------------------------------|
A|-6-6-6-6-6-6-6-------------------4-4-4-4-4-4-4-4------------4--|
E|-------------------------------------------------6-6-6-4-44----| x4



Back to the intro

G|----------------------------------|
D|---------------6-8-8-8-6-6-6-4-4--|
A|-6-6-6-6-6-6-6--------------------|
E|----------------------------------|

G|----------------------------------|
D|---------------4-6-6-6-4-4-4------|
A|-4-4-4-4-4-4-4---------------4-4--|
E|----------------------------------|

G|----------------------------------|
D|---------------6-8-8-8-6-6-6-4-4--|
A|-6-6-6-6-6-6-6--------------------|
E|----------------------------------|

G|---------------------------6-6-8--|
D|---------------4-6-6-6-8-8--------|
A|-4-4-4-4-4-4-4--------------------|
E|----------------------------------|



And finally the chorus to finish

G|---------------------------------------------------------------|
D|---------------3-4-4-4-4-4-4-4-3-------------------------------|
A|-6-6-6-6-6-6-6-------------------4-4-4-4-4-4-4-4------------4--|
E|-------------------------------------------------6-6-6-4-44----| x4


Enjoy!
comments
We did not receive enough feedback on this tab! Please rate:
print report bad tab
1 2 3 4 5
1 comment total.
0 reply
maxpowweer 782 wrote on August 29 2012, 07:38 pm

Good tab, and I agree. It does help you as a player to learn by ear, and I find that you learn the song more thoroughly as you have to dicect each part and repeat over and over. But sometimes it's faster to us UG, and too tempting when a perfectly good tab is right here lol.

I want to post or [tab]
guest
You may want to rate the tab now too:
select rating
Please do not post tabs as comments. Select "correction" instead!