Oops, an error
Loading. Please wait.

When I Argue I See Shapes bass

519 views 1 this week
1 commentread comment
1 2 3 4 5
x 5
add to favorites
×
Save as Personal and add changes to this tab that will be seen only by you. Learn more ›
×
You can save this tab as Personal to edit and correct it or add notes. All changes will be seen only by you. Learn more »
launch autoscroll
font size
0
reset
guitar tuner
edit
Autoscroll
slow
fast
+/-
esc
set tempo
stop
band:idlewild
song:when i argue i see shapes
bassist:bob fairfoul
tabber:paul(idlewild@users.basstabarchive.com)sumbit

verse
g------------------------------------------------------------
d-*--------------------------------------------------------*-
a-*6-6-6--6-6-6--6-3-3--3-3-3--3---------------------------*-
e-------------------------------4-4--4-4-4--4-6-6--6-6-6--6--

chorus part one
"so don't fight it at all"
g---------------------
d-*-----------------*-
a-*3-3-3-3/6\--------*-
e------------4-4-4-4---

chorus part 2
"you smoke too much"
g------------------------------------------------
d------------------------------------------------
a-6-6-6-6-6-6-6-6-6-6-6-3-3-3-3-3-3-3------------
e-------------------------------------4-4-4-4-6-6

"when i argue i see shapes,and when i argue.." (i play this but it's not 
right)
g---------------------------------------------------------------
d-*----------------------------------------------*--------------
a-*6-6-6-6-6-6-6-6-6-6-6-3-3-3-3-3-3-3-----------*-6-6-6--6-6-6-
e-------------------------------------4-4-4-4-6-6---------------

            
            
Suggest correction
Creating personal tab
Creating personal tab
You can edit any tab online and save it as your Personal.

You can edit, replace or remove any tab part or add personal notes – all changes will be seen only by you.

Personal tabs can be accessed anytime from any device, even offline.
Learn more »
comments
print report bad tab
1 comment total.
0 reply
alyn.smith 10 Jun 11, 2014 02:36 PM

The "chorus part one" (Bridge) should be:
"so don't fight it at all"
g-------------------------------
d-------------------------------
a--3-3-3-5----------------------
e----------3-4--4-4-4-4-4-4-4---

The "Chorus part 2" (Chorus)
"you smoke too much"
g-----------------------------------------------------------
d--------------5-5-5-5-5h6-5--------------------------------
a-6-6-6-6-6-8----------------8-6-3-3-3-3-3------------------
e-----------------------------------------3-4-4-4-4-6-6-6-6-

The Middle 8

"when i argue i see shapes,and when i argue.." (i play this but it's not
right)
g-------------------------------------
d------8--------8--------8--------8---
a--6-6---6--6-6---6--6-6---6--6-6---6-
e-------------------------------------

g------8--------8--------7--------7/8-7-5-7-
d--6-6---6--6-6---6--5-5---5--5-5-----------
a-------------------------------------------
e-------------------------------------------


The last little bit of the middle 8 may be wrong but it's 100 times better than the original tab above which is so wrong I wondered if it was a different song.

guest
Wanna post a correction for this tab? Suggest correction