Oops, an error
Loading. Please wait.

Gardenia tab

5,371 views 24 this week
3 commentsread comments
1 2 3 4 5
x 9
add to favorites
×
Save as Personal and add changes to this tab that will be seen only by you. Learn more ›
×
You can save this tab as Personal to edit and correct it or add notes. All changes will be seen only by you. Learn more »
launch autoscroll
font size
0
reset
how to read this tab
guitar tuner
edit
Autoscroll
slow
fast
+/-
esc
set tempo
stop
Author
Difficulty
IGGY POP
"Gardenia"
From the album "Post Pop Depression" (2016)

Standard Tuning
Tempo: 98 bpm

[INTRO/CHORUS] (with tremolo effect)

   S S S S S S S S S S S S S S S S   S S S S S S S S S S S S S S S S
e|-2-2-2-2-2-2-2-2-2-2-2-2-2-2-2-2-|-2-2-2-2-2-2-2-2-2-2-2-2-2-2-2-2--|
B|-2-2-2-2-2-2-2-2-2-2-2-2-2-2-2-2-|-2-2-2-2-2-2-2-2-2-2-2-2-2-2-2-2--|
G|-3-3-3-3-3-3-3-3-3-3-3-3-3-3-3-3-|-3-3-3-3-3-3-3-3-3-3-3-3-3-3-3-3--|
D|-4-4-4-4-4-4-4-4-4-4-4-4-4-4-4-4-|-4-4-4-4-4-4-4-4-4-4-4-4-4-4-4-4--|
A|-4-4-4-4-4-4-4-4-4-4-4-4-4-4-4-4-|-4-4-4-4-4-4-4-4-4-4-4-4-4-4-4-4--|
E|-2-2-2-2-2-2-2-2-2-2-2-2-2-2-2-2-|-2-2-2-2-2-2-2-2-2-2-2-2-2-2-2-2--|


   S S S S S S S S S S S S S S S S   S S S S S S S S E  E  E  E
e|-0-0-0-0-0-0-0-0-0-0-0-0-0-0-0-0-|-0-0-0-0-0-0-0-0------------|
B|-0-0-0-0-0-0-0-0-0-0-0-0-0-0-0-0-|-0-0-0-0-0-0-0-0------------|
G|-1-1-1-1-1-1-1-1-1-1-1-1-1-1-1-1-|-1-1-1-1-1-1-1-1-1----------|
D|-2-2-2-2-2-2-2-2-2-2-2-2-2-2-2-2-|-2-2-2-2-2-2-2-2----------4-|
A|-2-2-2-2-2-2-2-2-2-2-2-2-2-2-2-2-|-2-2-2-2-2-2-2-2----2//4----|
E|-0-0-0-0-0-0-0-0-0-0-0-0-0-0-0-0-|-0-0-0-0-0-0-0-0------------|


[VERSES]

   Q   q  Q  Q    Q   q  Q  Q    Q  q  Q  q    Q  Q  E s s E e
e|--------------|--------------|-------------|------------------|
B|----11--------|----11--------|----9-----9--|---------9-9---9--|
G|----11--------|----11--------|----9-----9--|---------9-9---9--|
D|----11--------|----11--------|----9-----9--|---------9-9---9--|
A|-----9--------|-----9--------|----7-----7--|---------7-7---7--|
E|--------------|--------------|-------------|------------------|


[BRIDGE]

   Gtr II
   E    E E E  S E.   Q     E    E E E  S E.   E  E       E  E  E  H           E       E  E  E H       E
e|------------------------|----------------------------|-------14-------------------|-------12-----------|
B|-9b10r9-7---10-7~~~-----|-9b10r9-7---10-7~~~---12b14r|-12-12----------------10b12r|=10-10--------------|
G|----------9-------------|----------9-----------------|----------11----------------|----------9---------|
D|------------------------|----------------------------|----------------------------|--------------------|
A|------------------------|----------------------------|----------------------------|--------------------|
E|------------------------|----------------------------|----------------------------|--------------------|
 |
 | Gtr I
 | E    E E E  E    E E E   E    E E E  E    E E  E       E  E  E  E  E  E  E  E       E  E  E E E E E E
e|------------------------|----------------------------|----------------------------|--------------------|
B|-7----7-7-7--7----7-7-7-|-7----7-7-7--7----7-7--7----|-11-11-11-11-11-11-11-11----|--9--9--9-9-9-9-9-9-|
G|-7----7-7-7--7----7-7-7-|-7----7-7-7--7----7-7--7----|-11-11-11-11-11-11-11-11----|--9--9--9-9-9-9-9-9-|
D|-7----7-7-7--7----7-7-7-|-7----7-7-7--7----7-7--7----|-11-11-11-11-11-11-11-11----|--9--9--9-9-9-9-9-9-|
A|-5----5-5-5--5----5-5-5-|-5----5-5-5--5----5-5--5----|--9--9--9--9--9--9--9--9----|--7--7--7-7-7-7-7-7-|
E|------------------------|----------------------------|----------------------------|--------------------|


   E    E E Q.     E E   E    E E Q.     E  E       E  E  Q     Q.        E       E  E  E  Q     E  Q
e|---------------------|-------------------------|-------14--------------------|-------------------------|
B|-9b10r9-7--------7-9-|-9b10r9-7----------12b14r|-12-12-----------------14b16r|=14-14-13-13----14-16----|
G|----------7~~~-------|----------7~~~-----------|-------------11--------------|-------------------------|
D|---------------------|-------------------------|-----------------------------|-------------------------|
A|---------------------|-------------------------|-----------------------------|-------------------------|
E|---------------------|-------------------------|-----------------------------|-------------------------|
 |
 | E    E E E  E E E E   E    E E E  E E E  E       E  E  E  E  E   E  E  E       E  E  E  E  E  E  E  E
e|---------------------|-------------------------|-----------------------------|-------------------------|
B|-7----7-7-7--7-7-7-7-|-7----7-7-7--7-7-7--7----|-11-11-11-11-11--11-11-11----|-13-13-13-13-13-13-13-13-|
G|-7----7-7-7--7-7-7-7-|-7----7-7-7--7-7-7--7----|-11-11-11-11-11--11-11-11----|-13-13-13-13-13-13-13-13-|
D|-7----7-7-7--7-7-7-7-|-7----7-7-7--7-7-7--7----|-11-11-11-11-11--11-11-11----|-13-13-13-13-13-13-13-13-|
A|-5----5-5-5--5-5-5-5-|-5----5-5-5--5-5-5--5----|--9--9--9--9--9---9--9--9----|-11-11-11-11-11-11-11-11-|
E|---------------------|-------------------------|-----------------------------|-------------------------|


    Q    Q    Q    Q      E     E  E  E  E  E  E  E    W
e|---------------------|----------------------------|-------|
B|-15---17---19---21---|-21b22r21-19----------19----|-------|
G|---------------------|-------------21-19S21----19-|-18----|
D|---------------------|----------------------------|-------|
A|---------------------|----------------------------|-------|
E|---------------------|----------------------------|-------|
 |
 |  E E  E E  E E  E E    E     E  E  E  E  E  E  E
e|---------------------|----------------------------|-------|
B|--7-7--7-7--7-7--7-7-|--7-----7--7--7-------------|-------|
G|--7-7--7-7--7-7--7-7-|--7-----7--7--7--1----------|-------|
D|--7-7--7-7--7-7--7-7-|--7-----7--7--7-----------4-|-------|
A|--5-5--5-5--5-5--5-5-|--5-----5--5--5-----2S=4----|-------|
E|---------------------|----------------------------|-------| Back to Chorus


Duration Legend
---------------
W - whole; H - half; Q - quarter; E - 8th; S - 16th; T - 32nd; X - 64th; a - acciaccatura
+ - note tied to previous; . - note dotted; .. - note double dotted
Uncapitalized letters represent notes that are staccato (1/2 duration)
Irregular groupings are notated above the duration line
Duration letters will always appear directly above the note/fret number it represents the
duration for.  Duration letters with no fret number below them represent rests.  Multi-
bar rests are notated in the form Wxn, where n is the number of bars to rest for.  Low
melody durations appear below the staff



************************************

| r  Release
| b  Bend
| /  Slide up
| ~  Vibrato

************************************

            
            
Suggest correction
Creating personal tab
Creating personal tab
You can edit any tab online and save it as your Personal.

You can edit, replace or remove any tab part or add personal notes – all changes will be seen only by you.

Personal tabs can be accessed anytime from any device, even offline.
Learn more »
comments
print report bad tab
3 comments total.
0 reply
seifer_alamasy 601 Feb 04, 2016 12:47 PM

This is an awesome tab! Thanks! I keep hearing the slide going from B to D instead of C# on the A string, but that may just be me! Such a great tune.

+1 reply
sashki 2,894 Feb 05, 2016 02:29 AM

You're probably right, I wasn't sure of that part. Thanks for the rating.

0 reply
wanajimmingo 10 Mar 21, 2016 02:09 PM

could someone tab in the lobby?

guest
You may want to rate the tab now too:
select rating
Wanna post a correction for this tab? Suggest correction