Oops, an error
Loading. Please wait.

Im Bored Bass

768 views 1 this week
no commentswrite comment
1 2 3 4 5
x 3
add to favorites
×
Save as Personal and add changes to this tab that will be seen only by you. Learn more ›
×
You can save this tab as Personal to edit and correct it or add notes. All changes will be seen only by you. Learn more »
save as personal
new!
launch autoscroll
font size
0
reset
guitar tuner
Autoscroll
slow
fast
+/-
esc
set tempo
stop
Author
Difficulty
intermediate
Iggy pop-Im bored 
Bass Tab

Only 3 part and an ending!!
listen to the record for timings

Main Riff

G|---------2h4---------2h4------------------|
D|-----2h4---------2h4----------------------|
A|-2-2---------2-2--------------------------|
E|------------------------------------------|

Chorus 1
G|-----------------------------------------|
D|-----------------------------------------|
A|-4-4-4-4p0--------0h4-4-4-4--------------|
E|-----------4-4-4-4----------555555555----|

Chorus 2
G|-----------------------------------------|
D|-----------------------------------------|
A|-4-4-4-4---------------------------------|
E|---------5-5-5-5-4-4-4-4-3-3-3-3---------|

End
G|-----------------------------------------|
D|-----------------------------------------|
A|-2-2-------------------------------------|
E|-----------------------------------------|

Order

Main riff Times 8
Chorus 1 Times 1
Main riff Times 2
Chorus 2 Times 1

Main riff Times 8
Chorus 2 Times 1

Main riff Times 8
Chorus 2 Times 1
End
Suggest correction
Give kudos to tab author, rate the tab!
1 2 3 4 5
comments
print report bad tab
guest
You may want to rate the tab now too:
select rating
Wanna post a correction for this tab? Suggest correction