Oops, an error
Loading. Please wait.

Im Sick Of You bass

version 1
version 1

Whole song

Interactive

319 views 1 this week
no commentswrite comment
1 2 3 4 5
3 more votes to show rating
add to favorites
×
Save as Personal and add changes to this tab that will be seen only by you. Learn more ›
×
You can save this tab as Personal to edit and correct it or add notes. All changes will be seen only by you. Learn more »
launch autoscroll
font size
0
reset
guitar tuner
backing track
0:00
0:00
edit
Autoscroll
slow
fast
+/-
esc
set tempo
stop
Author
Difficulty
newg [tm] 49,651
intermediate
----------------------------------------------------------------------------------------------------
                               Iggy and the Stooges - I'm Sick Of You   
----------------------------------------------------------------------------------------------------

Album :"I'm Sick Of You" Single (1977)
Tempo : 100 and 132
E-mail: gwendal.mollo@orange.fr
Tabbed by: newg    (http://profile.ultimate-guitar.com/newg/)

for more, see my guitar chord, guitar pro and powertab on the site.

 Intro
 
G|----------------------------|----------------|----------------------------|
D|----------------------------|-----------12b--|--12-14L14b-----------------|
A|-----------------------7L---|--7b------------|--------------------5b------|
E|----------------------------|----------------|----------------------------|


G|----------------|----------------------------|----------------|
D|-----------12b--|--12-14L14b-----------------|-----------12b--|
A|--7b------------|--------------------5b------|--7b------------|
E|----------------|----------------------------|----------------|


G|----------------------------|----------------|
D|--12-14L14b-----------------|-----------12b--|
A|--------------------5b------|--7b------------|
E|----------------------------|----------------|



Verses 1 & 2 :

G|---------|-------|----------------|----------------------------|
D|o--------|-------|-----------12---|--12-14L14------------------|
A|o5b------|--3----|--7-------------|----------------------------|
E|----0----|-------|----------------|----------------------------|


G|----------------------------|---------------|----------|-------|
D|--12-14L14------------------|-----------12-o|----------|-------|
A|----------------------------|--7-----------o|--5-------|--3----|
E|----------------------------|---------------|-----0----|-------|


G|----------------|----------------|----------------|
D|----------------|----------------|----------------|
A|--0-----0--0----|--0-----0--0----|--3--3--0--0----|
E|----------------|----------------|----------------|

Bridge 1 : 

G|G |------|-------|----------------|---------------------------|-------|
D|D |o-----|-------|-----------12---|--12-14L14----------------o|-------|
A|A |o3----|--0----|--7-------------|--------------------------o|--3----|
E|E |------|-------|----------------|---------------------------|-------|


G|-------|-------|----------|
D|-------|-------|----------|
A|--5----|--0----|--2-------|
E|-------|-------|----------|


Riff : 
G|--------------------------------------------------|
D|o2-----------2--2--------------------------------o|
A|o------------------------5--5--4--4--3--3--2--1--o|
E|--------------------------------------------------|


Verses 3 & 4 

G|----------------------------|----------------|
D|----------------------------|----------------|
A|--5--5--5--5----------------|--3--3--3--3----|
E|--------------0--0--0--0----|----------------|


G|--------------------------------------------------|
D|o2-----------2--2--------------------------------o|
A|o------------------------5--5--4--4--3--3--2--1--o|
E|--------------------------------------------------| x2



G|----------------------------|----------------|----------------------------|
D|----------------------------|----------------|----------------------------|
A|--5--5--5--5----------------|--3--3--3--3----|--0--0--0--0--0--0--0--0----|
E|--------------0--0--0--0----|----------------|----------------------------|


G|----------------------------|----------------------------|
D|----------------------------|----------------------------|
A|--0--0--0--0--0--0--0--0----|--3--3--3--3--3--3--3--3----|
E|----------------------------|----------------------------|


G|----------------------------|
D|----------------------------|
A|--0--0--0--0--0--0--0--0----|
E|----------------------------|


G|--------------------------------------------------|
D|o2-----------2--2--------------------------------o|
A|o------------------------5--5--4--4--3--3--2--1--o|
E|--------------------------------------------------|

Bridge 2 : 


G|---------------------------|----------------------------|
D|o--------------------------|----------------------------|
A|o3--3--3--3--3--3--3--3----|--0--0--0--0--0--0--0--0----|
E|---------------------------|----------------------------|


G|----------------------------------------------------|
D|--2-----------2--2----------------------------------|
A|--------------------------5--5--4--4--3--3--2--1----|
E|----------------------------------------------------|


G|---------------------------------------------------|
D|--2-----------2--2--------------------------------o|
A|--------------------------5--5--4--4--3--3--2--1--o|
E|---------------------------------------------------|


G|----------------------------|----------------------------|
D|----------------------------|----------------------------|
A|--3--3--3--3--3--3--3--3----|--5--5--5--5--5--5--5--5----|
E|----------------------------|----------------------------|


G|----------------------------|----------|-------|
D|----------------------------|----------|-------|
A|--0--0--0--0--0--0--0--0----|--2-------|-------|
E|----------------------------|----------|-------|

Break : 

G|----------------------------|----------------------------|
D|----------------------------|----------------------------|
A|--7--7--7--7--7--7--7--7----|--2--2--2--2--2--2--2--2----|
E|----------------------------|----------------------------|


G|----------------------------|----------------------------|
D|----------------------------|----------------------------|
A|--3--3--3--3--3--3--3--3----|--0--0--0--0--0--0--0--0----|
E|----------------------------|----------------------------|


G|----------------------------|----------------------------|
D|----------------------------|----------------------------|
A|--3--3--3--3--3--3--3--3----|--5--5--5--5--5--5--5--5----|
E|----------------------------|----------------------------|


G|--------------------------|----------------|
D|o------------------------o|----------------|
A|o0--0--0--0--0--0--0--0--o|--2-------------|
E|--------------------------|----------------|

Outro (Verse 1) :

G|-------|-------|-------|-------|----------------|-------|
D|-------|-------|-------|-------|--------2L------|--2----|
A|--0----|--0----|--3----|--0----|-----2----------|-------|
E|-------|-------|-------|-------|--0-------------|-------|

            
            
Suggest correction
Creating personal tab
Creating personal tab
You can edit any tab online and save it as your Personal.

You can edit, replace or remove any tab part or add personal notes – all changes will be seen only by you.

Personal tabs can be accessed anytime from any device, even offline.
Learn more »
Give kudos to tab author, rate the tab!
1 2 3 4 5
comments
print report bad tab
guest
You may want to rate the tab now too:
select rating
Wanna post a correction for this tab? Suggest correction