Oops, an error
Loading. Please wait.

Kill City Bass Tab

7 views 1 this week
no commentswrite comment
1 2 3 4 5
3 more votes to show rating
add to favorites
launch autoscroll
font size
0
reset
guitar tuner
Autoscroll
slow
fast
+/-
esc
set tempo
stop
Help us to improve Ultimate-Guitar.com Take our survey!
×
Author
Difficulty
newg [tm] 45,803
intermediate
----------------------------------------------------------------------------------------------------
                                          Iggy Pop - Kill City
----------------------------------------------------------------------------------------------------

Album : Kill City (1977)
Tempo : 148
E-mail: gwendal.mollo@orange.fr
Tabbed by: newg    (http://profile.ultimate-guitar.com/newg/)

[Intro]

G|----------------|
D|----------------|
A|--3--3--3-0-2-0-|
E|----------------| x3 

G|------------------|
D|------------------|
A|--3--3--3-0-2-1---|
E|------------------|

G|----------------|
D|----------------|
A|--3--3--3-0-2-0-|
E|----------------| x2


G|-------------------|-------------------|-------------------|-------------------|
D|-------------------|-------------------|-------------------|-------------------|
A|--0---3-0-3-5----0-|---0-3-0-3-5-----0-|----0-3-0-3-5-5-5--|-------------------|            
E|-------------------|-------------------|-------------------|----5-3-3----1--1--|
                                    


[Verse]

G|-------------------|-------------------|-------------------|-------------------|
D|-------------------|-------------------|-------------------|-------------------|
A|--0---3-0-3-5----0-|---0-3-0-3-5-----0-|----0-3-0-3-5-5-5--|-------------------|            
E|-------------------|-------------------|-------------------|-----5-3-3---1--1--| x2
                                    


[Chorus]

G|-------------------|
D|-------------------|
A|-------------------|
E|--0---0-3-4-5---5--| x3

G|-------------------|
D|-------------------|
A|-------------------|
E|--3-3-3-3-3-3-3-3--| 
Suggest correction
Give kudos to tab author, rate the tab!
1 2 3 4 5
comments
print report bad tab
guest
You may want to rate the tab now too:
select rating
Wanna post a correction for this tab? Suggest correction