Oops, an error
Loading. Please wait.

Kill City Bass

37 views 1 this week
no commentswrite comment
1 2 3 4 5
3 more votes to show rating
add to favorites
launch autoscroll
font size
0
reset
guitar tuner
×
Best way to learn
"Kill City"
Autoscroll
slow
fast
+/-
esc
set tempo
stop
Author
Difficulty
newg [tm] 47,431
  follow
intermediate
----------------------------------------------------------------------------------------------------
                                          Iggy Pop - Kill City
----------------------------------------------------------------------------------------------------

Album : Kill City (1977)
Tempo : 148
E-mail: gwendal.mollo@orange.fr
Tabbed by: newg    (http://profile.ultimate-guitar.com/newg/)

My cover :
https://www.youtube.com/watch?v=KcQ1M3L4i10&list=PLJULby03EpIk7ACqbkjwxW5H0Jox_Vd2E&index=8

[Intro]

G|----------------|
D|----------------|
A|--3--3--3--0-2--|
E|----------------| x3 

G|------------------|
D|------------------|
A|--3--3--3-0-2-1---|
E|------------------|

G|----------------|
D|----------------|
A|--3--3--3--0-2--|
E|----------------| x2


G|-------------------|-------------------|-------------------|-------------------|
D|-------------------|-------------------|-------------------|-------------------|
A|--0---3-0-3-5----0-|---0-3-0-3-5-----0-|----0-3-0-3-5-5-5--|-------------------|            
E|-------------------|-------------------|-------------------|----5-3-3----1--1--| x2
                                    


[Verse 1]

G|-------------------|-------------------|-------------------|-------------------|
D|-------------------|-------------------|-------------------|-------------------|
A|--0---3-0-3-5----0-|---0-3-0-3-5-----0-|----0-3-0-3-5-5-5--|-------------------|            
E|-------------------|-------------------|-------------------|-----5-3-3---1--1--| x2
                                    


[Chorus 1]

G|-------------------|
D|-------------------|
A|-------------------|
E|--0---0-3-4-5---5--| x3

G|-------------------|
D|-------------------|
A|-------------------|
E|--3-3-3-3-3-3-3-3--| 


G|-------------------|-------------------|-------------------|-------------------|
D|-------------------|-------------------|-------------------|-------------------|
A|--0---3-0-3-5----0-|---0-3-0-3-5-----0-|----0-3-0-3-5-5-5--|-------------------|            
E|-------------------|-------------------|-------------------|----5-3-3----1--1--| x2

[Verse 2]

G|-------------------|-------------------|-------------------|-------------------|
D|-------------------|-------------------|-------------------|-------------------|
A|--0---3-0-3-5----0-|---0-3-0-3-5-----0-|----0-3-0-3-5-5-5--|-------------------|            
E|-------------------|-------------------|-------------------|-----5-3-3---1--1--| x2


[Chorus 2]

G|-------------------|
D|-------------------|
A|-------------------|
E|--0---0-3-4-5---5--| x3

G|-------------------|
D|-------------------|
A|-------------------|
E|--3-3-3-3-3-3-3-3--| 


G|-------------------|-------------------|-------------------|
D|-------------------|-------------------|-------------------|
A|--0---3-0-3-5----0-|---0-3-0-3-5-----0-|------------5------|            
E|-------------------|-------------------|--6----------------|
 
[Riff intro]

G|----------------|
D|----------------|
A|--3--3--3--0-2--|
E|----------------| x3 

G|------------------|
D|------------------|
A|--3--3--3-0-2-1---|
E|------------------|

G|----------------|
D|----------------|
A|--3--3--3--0-2--|
E|----------------| x2


G|-------------------|-------------------|-------------------|-------------------|
D|-------------------|-------------------|-------------------|-------------------|
A|--0---3-0-3-5----0-|---0-3-0-3-5-----0-|----0-3-0-3-5-5-5--|-------------------|            
E|-------------------|-------------------|-------------------|----5-3-3----1--1--| x2
                                    


[Verse 3]

G|-------------------|-------------------|-------------------|-------------------|
D|-------------------|-------------------|-------------------|-------------------|
A|--0---3-0-3-5----0-|---0-3-0-3-5-----0-|----0-3-0-3-5-5-5--|-------------------|            
E|-------------------|-------------------|-------------------|-----5-3-3---1--1--| x2
                                    
[Chorus 3]

G|-------------------|
D|-------------------|
A|-------------------|
E|--0---0-3-4-5---5--| x3

G|-------------------|
D|-------------------|
A|-------------------|
E|--3-3-3-3-3-3-3-3--| 


G|-------------------|-------------------|-------------------|
D|-------------------|-------------------|-------------------|
A|--0---3-0-3-5----0-|---0-3-0-3-5-----0-|------------5------|            
E|-------------------|-------------------|--6----------------|

[Riff intro] (play twice, and fade out)

G|----------------|
D|----------------|
A|--3--3--3--0-2--|
E|----------------| x3 

G|------------------|
D|------------------|
A|--3--3--3-0-2-1---|
E|------------------|

G|----------------|
D|----------------|
A|--3--3--3--0-2--|
E|----------------| x2

Suggest correction
Give kudos to tab author, rate the tab!
1 2 3 4 5
comments
print report bad tab
guest
You may want to rate the tab now too:
select rating
Wanna post a correction for this tab? Suggest correction