Oops, an error
Loading. Please wait.

Lust For Life Tab

version 1
version 1

Whole song

Interactive

121 views 21 this week
no commentswrite comment
1 2 3 4 5
3 more votes to show rating
add to favorites
launch autoscroll
font size
0
reset
how to read this tab
guitar tuner
Autoscroll
slow
fast
+/-
esc
set tempo
stop
Help us to improve Ultimate-Guitar.com Take our survey!
×
Author
Difficulty
newg [tm] 45,857
intermediate
----------------------------------------------------------------------------------------------------
                                 Iggy Pop - Lust for Life
----------------------------------------------------------------------------------------------------

Album : Lust for Life  
Tempo : 101 (Triplet fell 16th)
E-mail: gwendal.mollo@orange.fr
Tabbed by: newg    (http://profile.ultimate-guitar.com/newg/)

Check my guitar pro / powertab on the site for more


Guitar I :

[Intro]

(6 bars mute)

    A                                   G/D   D
e|--------------------------------------3-----2-------|
B|--2--------------------------------x--0-----3-------|
G|--2--------------------------2-----x--0-----2-------|
D|--2--------------------------2-----x--0-----0-------|
A|--0--------------------------0----------------------|
E|----------------------------------------------------| x4

(4 bars mute)


    A                                   G/D   D
e|--------------------------------------3-----2-------|
B|--2--------------------------------x--0-----3-------|
G|--2--------------------------2-----x--0-----2-------|
D|--2--------------------------2-----x--0-----0-------|
A|--0--------------------------0----------------------|
E|----------------------------------------------------| x4


    E
e|--0-----0-----0L----0--0-----0-----x--0-----0-------|
B|--0-----0-----0L----0--0-----0-----x--0-----0-------|
G|--1-----1-----1L----1--1-----1-----x--1-----1-------|
D|--2-----2-----2L----2--2-----2--------2-----2-------|
A|--2-----2-----2L----2--2-----2--------2-----2-------|
E|--0-----0-----0L----0--0-----0--------0-----0-------| x4

    G
e|--3-----3-----3L----3--3-----3--------3-----3-------|
B|--0-----0-----0L----0--0-----0-----x--0-----0-------|
G|--0-----0-----0L----0--0-----0-----x--0-----0-------|
D|--0-----0-----0L----0--0-----0-----x--0-----0-------|
A|--2-----2-----2L----2--2-----2--------2-----2-------|
E|--3-----3-----3L----3--3-----3--------3-----3-------| x2

    Dsus4 D
e|--3-----2-----2L----2--2-----2--------2-----2-------|
B|--3-----3-----3L----3--3-----3-----x--3-----3-------|
G|--2-----2-----2L----2--2-----2-----x--2-----2-------|
D|--0-----0-----0L----0--0-----0-----x--0-----0-------|
A|----------------------------------------------------|
E|----------------------------------------------------| x2

   Esus4 E
e|--0.----0.----0--------0.----0.----x--0-------------|
B|--0.----0.----0--------0.----0.----x--0-------------|
G|--2.----1.----1--------1.----1.----x--1-------------|
D|--2.----2.----2--------2.----2.----x--2-------------|
A|--2.----2.----2--------2.----2.----x--2-------------|
E|--0.----0.----0--------0.----0.----x--0-----0-------| x2

    A
e|----------------------------------------------------|
B|--2.----2.----2L----2--2.----2.----x.-2.------------|
G|--2.----2.----2L----2--2.----2.----x.-2.------------|
G|--2.----2.----2L----2--2.----2.----x.-2.------------|
A|--0.----0.----0L----0--0.----0.----x.-0.------------|
E|--------------------------------------------0-------| x2


[Verse]

    A
e|----------------------------------------------------|
B|--2.----2.----2L----2--2.----2.----x.-2.------------|
G|--2.----2.----2L----2--2.----2.----x.-2.------------|
G|--2.----2.----2L----2--2.----2.----x.-2.------------|
A|--0.----0.----0L----0--0.----0.----x.-0.------------|
E|--------------------------------------------0-------| X2

    E
e|--0.----0.----0--------0.----0.----x--0-------------|
B|--0.----0.----0--------0.----0.----x--0-------------|
G|--1.----1.----1--------1.----1.----x--1-------------|
D|--2.----2.----2--------2.----2.----x--2-------------|
A|--2.----2.----2--------2.----2.----x--2-------------|
E|--0.----0.----0--------0.----0.----x--0-----0-------| x4

    A
e|----------------------------------------------------|
B|--2.----2.----2L----2--2.----2.----x.-2.------------|
G|--2.----2.----2L----2--2.----2.----x.-2.------------|
G|--2.----2.----2L----2--2.----2.----x.-2.------------|
A|--0.----0.----0L----0--0.----0.----x.-0.------------|
E|--------------------------------------------0-------| x4

    E
e|--0.----0.----0--------0.----0.----x--0-------------|
B|--0.----0.----0--------0.----0.----x--0-------------|
G|--1.----1.----1--------1.----1.----x--1-------------|
D|--2.----2.----2--------2.----2.----x--2-------------|
A|--2.----2.----2--------2.----2.----x--2-------------|
E|--0.----0.----0--------0.----0.----x--0-----0-------| x4


[Chorus]

    G
e|--3.----3.----3.-------3.----3.----x--3.------------|
B|--0.----0.----0.-------0.----0.----x--0.------------|
G|--0.----0.----0.-------0.----0.----x--0.------------|
D|--0.----0.----0.-------0.----0.----x--0.------------|
A|--2.----2.----2.-------2.----2.----x--2.------------|
E|--3.----3.----3.-------3.----3.----x--3.----0-------| x2

    D
e|--2.----2.----2.-------2.----2.----x--2.------------|
B|--3.----3.----3.-------3.----3.----x--3.------------|
G|--2.----2.----2.-------2.----2.----x--2.------------|
D|--0.----0.----0.-------0.----0.----x--0.------------|
A|----------------------------------------------------|
E|--------------------------------------------0-------| x2

    E
e|--0.----0.----0--------0.----0.----x--0-------------|
B|--0.----0.----0--------0.----0.----x--0-------------|
G|--1.----1.----1--------1.----1.----x--1-------------|
D|--2.----2.----2--------2.----2.----x--2-------------|
A|--2.----2.----2--------2.----2.----x--2-------------|
E|--0.----0.----0--------0.----0.----x--0-----0-------| x2

[Break]

    A
e|----------------------------------------------------|
B|--2.----2.----2L----2--2.----2.----x.-2.------------|
G|--2.----2.----2L----2--2.----2.----x.-2.------------|
G|--2.----2.----2L----2--2.----2.----x.-2.------------|
A|--0.----0.----0L----0--0.----0.----x.-0.------------|
E|--------------------------------------------0-------| X2





Guitar II :

[Intro]
   0'05
e|---------------------------------------------|-----------------------------------------------|
B|---------------------------------------------|-----------------------------------------------|
G|---------------------------------------------|--2--------------------------------------------|
D|---------------------------------------2--4--|-----------------------------------------------|
A|--x--x--0--------0------0--------0s-4--------|--------0--------0--------0--------------------|
E|---------------------------------------------|-----------------------------------------------|


   0'20
e|----------------|----------------------------|
B|-----9----------|--------10------------------|
G|----------------|----------------------------|
D|----------------|----------------------------|
A|----------------|----------------------------|
E|----------------|----------------------------|

   0'25
e|---------------------------------------------|-----------------------------------------------|
B|---------------------------------------------|-----------------------------------------------|
G|-------------------------1s-2------1---------|-----------------------------------------------|
D|----2---------0------------------------------|----0-------0----------------------------------|
A|-----------x---------X-----------------------|--------X-------X-----X--0---------------------|
E|---------------------------------------------|-----------------------------------------------|


    A
e|-----------------------------------------------------|
B|--2.----2.----2L----2--2.----2.--2-0-----------------|
G|--2.----2.----2L----2--2.----2.------2-0-------------|
G|--2.----2.----2L----2--2.----2.----------2-0---------|
A|--0.----0.----0L----0--0.----0.--------------2-0-----|
E|-------------------------------------------------2-0-| 


   [Chorus]
e|---------------------------------------------|
B|---------------------------------------------|
G|---------------------------------------------|
D|---7-------5----------3----------------------|
A|------------------------------5--------------|
E|---------------------------------------------| X2
Suggest correction
Give kudos to tab author, rate the tab!
1 2 3 4 5
comments
print report bad tab
guest
You may want to rate the tab now too:
select rating
Wanna post a correction for this tab? Suggest correction