Oops, an error
Loading. Please wait.

Lust For Life Bass Tab

version 2
version 2

Whole song

Interactive

34 views 3 this week
no commentswrite comment
1 2 3 4 5
2 more votes to show rating
add to favorites
launch autoscroll
font size
0
reset
guitar tuner
Autoscroll
slow
fast
+/-
esc
set tempo
stop
Help us to improve Ultimate-Guitar.com Take our survey!
×
Author
Difficulty
newg [tm] 45,832
intermediate
----------------------------------------------------------------------------------------------------
                           Iggy Pop - Lust for Life
----------------------------------------------------------------------------------------------------

Album : Lust for Life  
Tempo : 101 (Triplet fell 16th)
E-mail: gwendal.mollo@orange.fr
Tabbed by: newg    (http://profile.ultimate-guitar.com/newg/)

Check my guitar pro / powertab on the site for more

[Intro]

G|------------------------------------------------|------------------------------------------------|
D|------------------------------------------------|------------------------------------------------|
A|------------------------------------------------|------------------------------------------------|
E|--5.----5.----5.----0--5-----5-----0--5-----0---|--5.----5.----5.----0--5-----5----0--5-0-0---3--|


G|------------------------------------------------|------------------------------------------------|
D|------------------------------------------------|-----------------------5h-7--5--------5-----7---|
A|------------------------------------------------|---------------------------------7--------------|
E|--5.----5.----5.----0--5-----5-----0--5-----0---|--5.----5.----5.----0---------------------------|

G|------------------------------------------------|
D|------------------------------------------------|
A|------------------------------------------------|
E|--5.----5.----5.----0--5-----5-----0--5-----0---| x4

G|------------------------------------------------|
D|------------------------------------------------|
A|--7.----7.----7L-7-----7.----7--7-----7---------|
E|--------------------7--------------7-------7----| x4

G|------------------------------------------------|
D|------------------------------------------------|
A|------------------------------------------------|
E|--5.----5.----5.----0--5-----5-----0--5-----0---| x3

G|------------------------------------------------|
D|------------------------------------------------|
A|---------------------------4---4-5---5-6---6----|
E|--5.----5.----5.----0--5------------------------|

G|------------------------------------------------|
D|------------------------------------------------|
A|--7.----7.----7L-7-----7.----7--7-----7---------|
E|--------------------7--------------7-------7----| x3

G|------------------------------------------------|
D|------------------------------------------------|
A|--7.----7.----7L-7-----7.----7--7-----7----9----|
E|--------------------7--------------7------------| 

G|------------------------------------------------|------------------------------------------------|
D|------------------------------------------------|------------------------------------------------|
A|--10.---10.---10L10----10.---10-10----10--------|--10.---10.---10L10----10.--10-10-10-9--9--7--7-|
E|--------------------10-------------10-------10--|--------------------10--------------------------|

G|------------------------------------------------|
D|------------------------------------------------|
A|--5.----5.----5.----0--5-----5-----0--5-----0---|
E|------------------------------------------------| x2

G|------------------------------------------------|
D|------------------------------------------------|
A|--7.----7.----7L-7-----7.----7--7-----7---------|
E|--------------------7--------------7-------0----| x2

G|------------------------------------------------|
D|------------------------------------------------|
A|------------------------------------------------|
E|--5.----5.----5.----0--5-----5-----0--5-----0---| x2



[Verse]

G|------------------------------------------------|
D|------------------------------------------------|
A|------------------------------------------------|
E|--5.----5.----5.----0--5-----5-----0--5-----0---| x2

G|------------------------------------------------|
D|------------------------------------------------|
A|--7.----7.----7L-7-----7.----7--7-----7---------|
E|--------------------7--------------7-------0----| x4

G|------------------------------------------------|
D|------------------------------------------------|
A|------------------------------------------------|
E|--5.----5.----5.----0--5-----5-----0--5-----0---| x4


G|------------------------------------------------|
D|------------------------------------------------|
A|--7.----7.----7L-7-----7.----7--7-----7---------|
E|--------------------7--------------7-------0----| x4

[Chorus]


G|------------------------------------------------|------------------------------------------------|
D|------------------------------------------------|------------------------------------------------|
A|--10.---10.---10L10----10.---10-10----10--------|--10.---10.---10L10----10.--10-10-10-9--9--7--7-|
E|--------------------10-------------10-------10--|--------------------10--------------------------|

G|------------------------------------------------|
D|------------------------------------------------|
A|--5.----5.----5.----0--5-----5-----0--5-----0---|
E|------------------------------------------------| x2

G|------------------------------------------------|
D|------------------------------------------------|
A|--7.----7.----7L-7-----7.----7--7-----7---------|
E|--------------------7--------------7-------0----| x2

[Break]

G|------------------------------------------------|
D|------------------------------------------------|
A|------------------------------------------------|
E|--5.----5.----5.----0--5-----5-----0--5-----0---| 
Suggest correction
Give kudos to tab author, rate the tab!
1 2 3 4 5
comments
print report bad tab
guest
You may want to rate the tab now too:
select rating
Wanna post a correction for this tab? Suggest correction