Oops, an error
Loading. Please wait.

Private Hell tab

version 1
version 1

Whole song

Interactive

6,477 views 1 this week
3 commentsread comments
1 2 3 4 5
x 7
add to favorites
×
Save as Personal and add changes to this tab that will be seen only by you. Learn more ›
×
You can save this tab as Personal to edit and correct it or add notes. All changes will be seen only by you. Learn more »
launch autoscroll
font size
0
reset
how to read this tab
guitar tuner
edit
Autoscroll
slow
fast
+/-
esc
set tempo
stop
Author
----------------------------------------------------------------------------
                             PRIVATE HELL - IGGY POP
----------------------------------------------------------------------------
Tabbed by: Babs Uvula
Email: robbiehpr_17@hotmail.co.uk

.....such an easy song

Tuning: Standard

Intro/Verse
0 secs - '39 secs
e|--------------------------------------|
B|--------------------------------------|
G|--------7-7---------------------------|
D|---4-4--7-7--7-7--9999----------------|
A|---4-4--5-5--7-7--9999----------------|
E|---2-2-------5-5--7777----------------|
"I have a private hell of excellent quality..."

Chorus
'40 secs - '50 secs
e|---------------------------------------|
B|---------------------------------------|
G|-----------777777----------------------|
D|---444444--777777--777777--999999------|
A|---444444--555555--777777--999999------|
E|---222222----------555555--777777------|
"Well all in all, I must tell you..."

e|---------------------------------------|
B|---------------------------------------|
G|-----------777777----------6-----------|
D|---444444--777777--666666--6-----------|
A|---444444--555555--666666--4-----------|
E|---222222----------444444--------------|


THEN REPEAT THE VERSE

It's much the same throughout, just listen to the song to know when to play each part.

            
            
Suggest correction
Creating personal tab
Creating personal tab
You can edit any tab online and save it as your Personal.

You can edit, replace or remove any tab part or add personal notes – all changes will be seen only by you.

Personal tabs can be accessed anytime from any device, even offline.
Learn more »
comments
print report bad tab
3 comments total.
0 reply
NapalmMan 813 Oct 18, 2013 07:29 AM

You forgot about:
1. Riff that starts on '05 sec
2. Solo on 1'48
3. Different chorus on 2'20

+2 reply
NapalmMan 813 Oct 18, 2013 07:32 AM

And here that riff:

D|-----4---------------------|
A|---------3---2-0-2-4-2-0-3-|
E|-2-------------------------|

D|-----4-----------------------------|
A|---------3---2-0-2-4-2-0-4-2-0-----|
E|-2-----------------------------4-2-|

0 reply
NapalmMan 813 Oct 18, 2013 07:42 AM

And in the ending you should play once C# instead of B, if you listen to song you should hear it.

guest
You may want to rate the tab now too:
select rating
Wanna post a correction for this tab? Suggest correction