Oops, an error
Loading. Please wait.

Sunday Bass Tab

247 views 24 this week
no commentswrite comment
1 2 3 4 5
x 3
add to favorites
launch autoscroll
font size
0
reset
guitar tuner
Autoscroll
slow
fast
+/-
esc
set tempo
stop
Help us to improve Ultimate-Guitar.com Take our survey!
×
Author
SUNDAY - Iggy Pop (Post Pop Depression - 2016)

Check out my bass cover If you want a more precise insight of the bassline!
Enjoy, it feels so good playing it :D

https://www.youtube.com/watch?v=JGpvG4CLus0


[Intro]
[0:03 - 0:16]

G|--5-----------------------------------5------------------------7/9-7/9-7-|
D|------5-7-----------5---7/9-7/9-7-----------5-7-----------5--------------|
A|0---0-----0-0---5-7---0-------------0---0-------0-0---5-7----0-----------|
E|-------------------------------------------------------------------------|


G|--5------------------------------|
D|------5-7-----------5--7/9-7/9-7-|
A|0---0-----0-0---5-7--0-----------|
E|---------------------------------|


[0:17 - 0:20]

G|--------------------------------|
D|----0-2---(3)/7---5---7---------|
A|0-0-----3-------7--------7-5----|
E|--------------------------------|


[0:21 - 0:29]

G|-------------------------------------------------------------------------------------|
D|7/-----------------------------------------------------------------------------------|
A|—0—-6–-7-—10-11-12/-0–6–7-–10-11-12/-0--6--7--0-11-12-12/-0--6--7------|
E|-------------------------------------------------------------------------------------|


[0:30]

 This house…
G|--------------------------------------------------------------------------------------|
D|--------------------------------------------------------------------------------------|
A|—10-11-12/-0—-6–-7-—10-11-12/14-12–6–7-–10-11-12/–0–6–7–-11-12------------------------|
E|--------------------------------------------------------------------------------------|


G|-----------------------------------------|
D|-------14--------12-------10-------9-----|
A|—----------------------------------------|
E|-10/12-----8/10—-----6/8-----5/7---------|


[0:39]

 This job…
G|-----------------------------------------------------------------------------------|
D|-----------------------------------------------------------------------------------|
A|—10-11-12/-0—-6–-7--10-11-12/-0—-6–-7-—10-11-12/14-12–6–7-–10-11-------------------|
E|-----------------------------------------------------------------------------------|


G|-----------------------------------------|
D|-------14--------12-------10-------9-----|
A|—----------------------------------------|
E|-10/12-----8/10—-----6/8-----5/7---------|


[0:47]

Like a wreck…
G|--5-----------------------------------5------------------------7/9-7/9-7-|
D|------5-7-----------5---7/9-7/9-7-----------5-7-----------5--------------|
A|0---0-----0-0---5-7---0-------------0---0-------0-0---5-7----0-----------|
E|-------------------------------------------------------------------------|


[0:55]

The key to everything…
G|------------------------------------------------------------------7--------|
D|--0-2-2/5-5-------0-2-2/5-5---------4-4/7-7----------------4--7/9---9-7--9-|
A|3-----------7/--3-----------7/--5-7---------9/------5-7--------------------|
E|---------------------------------------------------------------------------|


Caught up in dreams
G|---------------------------------------------------------------9h11p9----9-|
D|---0-2-2/5-5-------0-2-2/5-5----------------5--7/9---------7/9--------12---|
A|-3-----------7/--3-----------7/------5/7-9-----------5/7-9-----------------|
E|---------------------------------------------------------------------------|

The days roll on…
G|------------------------------------------------------------------7--------|
D|--0-2-2/5-5-------0-2-2/5-5---------4-4/7-7----------------4--7/9---9-7--9-|
A|3-----------7/--3-----------7/--5-7---------9/------5-7--------------------|
E|---------------------------------------------------------------------------|


[1:21] 

I’ve got it all
G|---------------------------------------------------------------------------|
D|--0-2-2/5-5-------0-2--2-2-2-2-0-------------------------------------------|
A|3-----------7/--3----------------2-----------------------------------------|
E|---------------------------------------------------------------------------|


                         We're getting some moooore...
G|--5-----------------------------------5------------------------7/9-7/9-7-|
D|------5-7-----------5---7/9-7/9-7-----------5-7-----------5--------------|
A|0---0-----0-0---5-7---0-------------0---0-------0-0---5-7----0-----------|
E|-------------------------------------------------------------------------|

 Always ready...
G|--5-----------------------------------5------------------------7/9-7/9-7-|
D|------5-7-----------5---7/9-7/9-7-----------5-7-----------5--------------|
A|0---0-----0-0---5-7---0-------------0---0-------0-0---5-7----0-----------|
E|-------------------------------------------------------------------------|


[Instrumental]

[1:42]
G|---------------------------------------------------------------------------------|
D|7/-------------------------------------------------------------------------------|
A|—0—-6–-7-—10-11-12/-0–6–7-–10-11-12/-0--6--7--0-11-12-12/-0--6--7----------------|
E|---------------------------------------------------------------------------------|


[1:50]

 This street
G|--------------------------------------------------------------------------------------|
D|--------------------------------------------------------------------------------------|
A|—10-11-12/-0—-6–-7-—10-11-12/14-12–6–7-–10-11-12/–0–6–7–-11-12------------------------|
E|--------------------------------------------------------------------------------------|


G|-----------------------------------------|
D|-------14--------12-------10-------9-----|
A|—--------------------------------------|
E|-10/12-----8/10—-----6/8-----5/7-------|

[1:57]
A pride...

G|------------------------------------------------------------------------------------|
D|------------------------------------------------------------------------------------|
A|—10-11-12/-0—-6–-7--10-11-12/-0—-6–-7-—10-11-12/14-12–6–7-–10-11--------------------|
E|------------------------------------------------------------------------------------|

G|-----------------------------------------|
D|-------14--------12-------10-------9-----|
A|—----------------------------------------|
E|-10/12-----8/10—-----6/8-----5/7---------|


[2:07]

I'm a wreck


G|--5-----------------------------------5------------------------7/9-7/9-7-|
D|------5-7-----------5---7/9-7/9-7-----------5-7-----------5--------------|
A|0---0-----0-0---5-7---0-------------0---0-------0-0---5-7----0-----------|
E|-------------------------------------------------------------------------|

[2:16]
The key to everything…

G|------------------------------------------------------------------7--------|
D|--0-2-2/5-5-------0-2-2/5-5---------4-4/7-7----------------4--7/9---9-7--9-|
A|3-----------7/--3-----------7/--5-7---------9/------5-7--------------------|
E|---------------------------------------------------------------------------|


[2:25]
Caught up in dreams

G|---------------------------------------------------------------9h11p9----9-|
D|---0-2-2/5-5-------0-2-2/5-5----------------5--7/9---------7/9--------12---|
A|-3-----------7/--3-----------7/------5/7-9-----------5/7-9-----------------|
E|---------------------------------------------------------------------------|


[2:34]
The days roll on…

G|------------------------------------------------------------------7--------|
D|--0-2-2/5-5-------0-2-2/5-5---------4-4/7-7----------------4--7/9---9-7--9-|
A|3-----------7/--3-----------7/--5-7---------9/------5-7--------------------|
E|---------------------------------------------------------------------------|


[2:42]
I’ve got it all

G|---------------------------------------------------------------------------|
D|--0-2-2/5-5-------0-2--2-2-2-2-0-------------------------------------------|
A|3-----------7/--3----------------2-----------------------------------------|
E|---------------------------------------------------------------------------|


[2:46]

And So what now ?                               (Bells)
G|-----------------------------------------------------------------------------|
D|7/-----------------------/10-10-10-10-10-------------------------------------|
A|--0—-6–-7-—10-11-12/-0-0-----------------------------------------------------|
E|-----------------------------------------------------------------------------|


[2:54]
(Girls singing: do what they say...)

G|------------------------------------------------------------------7--------|
D|--0-2-2/5-5-------0-2-2/5-5---------4-4/7-7----------------4--7/9---9-7--9-|
A|3-----------7/--3-----------7/--5-7---------9/------5-7--------------------|
E|---------------------------------------------------------------------------|


Do What they say
G|---------------------------------------------------------------------------|
D|---0-2-2/5-5-------0-2-2/5-5----------------5--7/9---------7---------------|
A|-3-----------7/--3-----------7/------5/7-9-----------5/7-9-----2-3---------|
E|---------------------------------------------------------------------------|


[3:10]

G|--5-----------------------------------5------------------------7/9-7/9-7-|
D|------5-7-----------5---7/9-7/9-7-----------5-7-----------5--------------|
A|0---0-----0-0---5-7---0-------------0---0-------0-0---5-7----0-----------|
E|-------------------------------------------------------------------------|


G|--5----------------------------------------------------------------------|
D|------5-7-----------5----7/9-7/9-7------0-2---(3)/7----5---7-------------|
A|0---0-----0-0---5-7---0-------------0-0-----3-------7--------7-5---------|
E|-------------------------------------------------------------------------|


[3:30]

G|--------------------------------------------------------------------------|
D|--------------------------------------------------------------------------|
A|0-0-0-0-0-0-0-0-0-0-0-0-0-0-0-0-0-0-0-0-0-0-0-0-0-0-0-0-0-0-0-0-0-0-0-0---|
E|--------------------------------------------------------------------------|

[3:33]
[Outro]

G|--------5-X--------------------------5-7-5h7/--------------7h9-----------|
D|---5-7------7--------5-7-5-5-7-----7------------------5/7------10-7------|
A|0-------------7----0-------------5-------------3/5-7---------------------|
E|----------------8--------------------------------------------------------|

(Repeat until fadeout)


************************************

| h  Hammer-on
| p  Pull-off
| /  Slide up

************************************
Suggest correction
Give kudos to tab author, rate the tab!
1 2 3 4 5
comments
print report bad tab
guest
You may want to rate the tab now too:
select rating
Wanna post a correction for this tab? Suggest correction