Oops, an error
Loading. Please wait.
We have an official The Passenger tab made by UG professional guitarists. Check out the tab »
×
3,932 views 27 this week
no commentswrite comment
1 2 3 4 5
x 7
add to favorites
×
Save as Personal and add changes to this tab that will be seen only by you. Learn more ›
×
You can save this tab as Personal to edit and correct it or add notes. All changes will be seen only by you. Learn more »
launch autoscroll
font size
0
reset
how to read this tab
guitar tuner
backing track
0:00
0:00
edit
Autoscroll
slow
fast
+/-
esc
set tempo
stop
Author
Difficulty
intermediate
THE PASSENGER

As recorded by Iggy Pop
(From the 1977 Album LUST FOR LIFE)

Words and Music by Iggy Pop & Ricky Gardiner

Transcribed by Slowhand


Gtr I (E A D G B E) - 'Carlos Alomar - Clean Electric Guitar w/ chorus & reverb'
Gtr II (E A D G B E) - 'Ricky Gardiner - Clean Electric Guitar w/ reverb'
Gtr III (E A D G B E) - 'Carlos Alomar - Clean Electric Guitar'


 Intro
  Q=134(8=s8)
    Am    F/C       C       G/D         Am      F/C       C       E
 4/4
  Gtr I
  E E E E E E E E   E E E E E E E E   E E E E E E E E   E E E E E E E E
|---0-0-0-x-1-1-1-|-x-0-0-0-x-3-3-3-|---0-0-0---1-1-1-|---0-0-0---0-0-0--|
|---1-1-1-x-1-1-1-|-x-1-1-1-x-3-3-3-|---1-1-1---1-1-1-|---1-1-1---0-0-0--|
|---2-2-2-x-2-2-2-|-x-0-0-0-x-4-4-4-|---2-2-2---2-2-2-|---0-0-0---1-1-1--|
|---2-2-2-x-3-3-3-|-x-2-2-2-x-5-5-5-|---2-2-2---3-3-3-|---2-2-2---2-2-2--|
|---0-0-0-x-3-3-3-|-x-3-3-3-x-5-5-5-|---0-0-0---3-3-3-|---3-3-3---2-2-2--|
|-----------------|-----------------|-----------------|-----------0-0-0--|


      Am    F/C       C           G/D
    E E E E E E E E   E E  E  E   E E  E E
||----0-0-0-x-1-1-1-|-x-0--0--0---x-3--3-3-|
||o---1-1-1-x-1-1-1-|-x-1--1--1---x-3--3-3-|
||----2-2-2-x-2-2-2-|-x-0--0--0---x-4--4-4-|
||----2-2-2-x-3-3-3-|-x-2--2--2---x-5--5-5-|
||o---0-0-0-x-3-3-3-|-x-3--3--3---x-5--5-5-|
||------------------|----------------------|
|
|   Gtr II
|   Q   E E E Q   E   E E +E  S S E Q.
||------------------|----------------------|
||o-----------------|----------------------|
||------------------|---0-(0)--------------|
||------------0---0-|-2-------------0------|
||o-0---0-----------|---------2p0-2--------|
||--------3-1-------|----------------------|


    Am      F/C       C           E
  E E E E E E E E   E E  E  E   E E  E E
|---0-0-0---1-1-1-|---0--0--0-----0--0-0---||
|---1-1-1---1-1-1-|---1--1--1-----0--0-0--o||
|---2-2-2---2-2-2-|---0--0--0-----1--1-1---||
|---2-2-2---3-3-3-|---2--2--2-----2--2-2---||
|---0-0-0---3-3-3-|---3--3--3-----2--2-2--o||
|-----------------|---------------0--0-0---||
|
| Q   E E E Q   E   E E +E  S S E Q.
|-----------------|------------------------||
|-----------------|-----------------------o||
|-----------------|---0-(0)----------------||
|-----------0---0-|-2-------------2--------||
|-0---0-----------|---------2p0-2---------o||
|-------3-1-------|------------------------||


   1st - 3rd Verses
    $
      Am    F/C       C           G/D
    E E E E E E E E   E E  E  E   E E  E E
||----0-0-0-x-1-1-1-|-x-0--0--0---x-3--3-3-|
||o---1-1-1-x-1-1-1-|-x-1--1--1---x-3--3-3-|
||----2-2-2-x-2-2-2-|-x-0--0--0---x-4--4-4-|
||----2-2-2-x-3-3-3-|-x-2--2--2---x-5--5-5-|
||o---0-0-0-x-3-3-3-|-x-3--3--3---x-5--5-5-|
||------------------|----------------------|
|
|   Q   E E E Q   E   E E +E  S S E Q.
||------------------|----------------------|
||o-----------------|----------------------|
||------------------|---0-(0)--------------|
||------------0---0-|-2-------------0------|
||o-0---0-----------|---------2p0-2--------|
||--------3-1-------|----------------------|


    Am      F/C       C           E
  E E E E E E E E   E E  E  E   E E  E E
|---0-0-0---1-1-1-|---0--0--0-----0--0-0--|
|---1-1-1---1-1-1-|---1--1--1-----0--0-0--|
|---2-2-2---2-2-2-|---0--0--0-----1--1-1--|
|---2-2-2---3-3-3-|---2--2--2-----2--2-2--|
|---0-0-0---3-3-3-|---3--3--3-----2--2-2--|
|-----------------|---------------0--0-0--|
|
| Q   E E E Q   E   E E +E  S S E Q.
|-----------------|-----------------------|
|-----------------|-----------------------|
|-----------------|---0-(0)---------------|
|-----------0---0-|-2-------------2-------|
|-0---0-----------|---------2p0-2---------|
|-------3-1-------|-----------------------|


    Am    F/C       C           G/D
  E E E E E E E E   E E  E  E   E E  E E
|---0-0-0-x-1-1-1-|-x-0--0--0---x-3--3-3-|
|---1-1-1-x-1-1-1-|-x-1--1--1---x-3--3-3-|
|---2-2-2-x-2-2-2-|-x-0--0--0---x-4--4-4-|
|---2-2-2-x-3-3-3-|-x-2--2--2---x-5--5-5-|
|---0-0-0-x-3-3-3-|-x-3--3--3---x-5--5-5-|
|-----------------|----------------------|
|
| Q   E E E Q   E   E E +E  S S E Q.
|-----------------|----------------------|
|-----------------|----------------------|
|-----------------|---0-(0)--------------|
|-----------0---0-|-2-------------0------|
|-0---0-----------|---------2p0-2--------|
|-------3-1-------|----------------------|


    Am      F/C       C           E
  E E E E E E E E   E E  E  E   E E  E E
|---0-0-0---1-1-1-|---0--0--0-----0--0-0-|
|---1-1-1---1-1-1-|---1--1--1-----0--0-0-|
|---2-2-2---2-2-2-|---0--0--0-----1--1-1-|
|---2-2-2---3-3-3-|---2--2--2-----2--2-2-|
|---0-0-0---3-3-3-|---3--3--3-----2--2-2-|
|-----------------|---------------0--0-0-|
|
| Q   E E E Q   E   E E +E  S S E Q.
|-----------------|----------------------|
|-----------------|----------------------|
|-----------------|---0-(0)--------------|
|-----------0---0-|-2-------------2------|
|-0---0-----------|---------2p0-2--------|
|-------3-1-------|----------------------|


    Am    F/C       C           G/D
  E E E E E E E E   E E  E  E   E E  E E
|---0-0-0-x-1-1-1-|-x-0--0--0---x-3--3-3-|
|---1-1-1-x-1-1-1-|-x-1--1--1---x-3--3-3-|
|---2-2-2-x-2-2-2-|-x-0--0--0---x-4--4-4-|
|---2-2-2-x-3-3-3-|-x-2--2--2---x-5--5-5-|
|---0-0-0-x-3-3-3-|-x-3--3--3---x-5--5-5-|
|-----------------|----------------------|
|
| Q   E E E Q   E   E E +E  S S E Q.
|-----------------|----------------------|
|-----------------|----------------------|
|-----------------|---0-(0)--------------|
|-----------0---0-|-2-------------0------|
|-0---0-----------|---------2p0-2--------|
|-------3-1-------|----------------------|
|
| Gtr III
| E E E e E E E e   E E  E  e   E E  E e
|---5-5-5---5-5-5-|----------------------|
|---5-5-5---6-6-6-|---5--5--5-----3--3-3-|
|---5-5-5---5-5-5-|---5--5--5-----4--4-4-|
|---7-7-7---7-7-7-|---5--5--5-----5--5-5-|
|-----------------|---3--3--3-----5--5-5-|
|-----------------|----------------------|


    Am      F/C       C           E
  E E E E E E E E   E E  E  E   E E  E E
|---0-0-0---1-1-1-|---0--0--0-----0--0-0-|
|---1-1-1---1-1-1-|---1--1--1-----0--0-0-|
|---2-2-2---2-2-2-|---0--0--0-----1--1-1-|
|---2-2-2---3-3-3-|---2--2--2-----2--2-2-|
|---0-0-0---3-3-3-|---3--3--3-----2--2-2-|
|-----------------|---------------0--0-0-|
|
| Q   E E E Q   E   E E +E  S S E Q.
|-----------------|----------------------|
|-----------------|----------------------|
|-----------------|---0-(0)--------------|
|-----------0---0-|-2-------------2------|
|-0---0-----------|---------2p0-2--------|
|-------3-1-------|----------------------|
|
| E E E e E E E e   E E  E  e   E E  E e
|---5-5-5---5-5-5-|---------------0--0-0-|
|---5-5-5---6-6-6-|---5--5--5-----0--0-0-|
|---5-5-5---5-5-5-|---5--5--5-----1--1-1-|
|---7-7-7---7-7-7-|---5--5--5-----2--2-2-|
|-----------------|---3--3--3------------|
|-----------------|----------------------|


    Am    F/C       C           G/D
  E E E E E E E E   E E  E  E   E E  E E
|---0-0-0-x-1-1-1-|-x-0--0--0---x-3--3-3-|
|---1-1-1-x-1-1-1-|-x-1--1--1---x-3--3-3-|
|---2-2-2-x-2-2-2-|-x-0--0--0---x-4--4-4-|
|---2-2-2-x-3-3-3-|-x-2--2--2---x-5--5-5-|
|---0-0-0-x-3-3-3-|-x-3--3--3---x-5--5-5-|
|-----------------|----------------------|
|
| Q   E E E Q   E   E E +E  S S E Q.
|-----------------|----------------------|
|-----------------|----------------------|
|-----------------|---0-(0)--------------|
|-----------0---0-|-2-------------0------|
|-0---0-----------|---------2p0-2--------|
|-------3-1-------|----------------------|
|
| E E E e E E E e   E E  E  e   E E  E e
|---5-5-5---5-5-5-|----------------------|
|---5-5-5---6-6-6-|---5--5--5-----3--3-3-|
|---5-5-5---5-5-5-|---5--5--5-----4--4-4-|
|---7-7-7---7-7-7-|---5--5--5-----5--5-5-|
|-----------------|---3--3--3-----5--5-5-|
|-----------------|----------------------|


                                  To Coda
    Am      F/C       C           E
  E E E E E E E E   E E  E  E   E E  E E
|---0-0-0---1-1-1-|---0--0--0-----0--0-0----||
|---1-1-1---1-1-1-|---1--1--1-----0--0-0---o||
|---2-2-2---2-2-2-|---0--0--0-----1--1-1----||
|---2-2-2---3-3-3-|---2--2--2-----2--2-2----||
|---0-0-0---3-3-3-|---3--3--3-----2--2-2---o||
|-----------------|---------------0--0-0----||
|
| Q   E E E Q   E   E E +E  S S E Q.
|-----------------|-------------------------||
|-----------------|------------------------o||
|-----------------|---0-(0)-----------------||
|-----------0---0-|-2-------------2---------||
|-0---0-----------|---------2p0-2----------o||
|-------3-1-------|-------------------------||
|
| E E E e E E E e   E E  E  e   E E  E e
|---5-5-5---5-5-5-|---------------0--0-0----||
|---5-5-5---6-6-6-|---5--5--5-----0--0-0---o||
|---5-5-5---5-5-5-|---5--5--5-----1--1-1----||
|---7-7-7---7-7-7-|---5--5--5-----2--2-2----||
|-----------------|---3--3--3--------------o||
|-----------------|-------------------------||


   Chorus
    $$
      Am    F/C       C       G/D         Am      F/C       C       E
    E E E E E E E E   E E E E E E E E   E E E E E E E E   E E E E E E E E
||----0-0-0-x-1-1-1-|-x-0-0-0-x-3-3-3-|---0-0-0---1-1-1-|---0-0-0---0-0-0---||
||o---1-1-1-x-1-1-1-|-x-1-1-1-x-3-3-3-|---1-1-1---1-1-1-|---1-1-1---0-0-0--o||
||----2-2-2-x-2-2-2-|-x-0-0-0-x-4-4-4-|---2-2-2---2-2-2-|---0-0-0---1-1-1---||
||----2-2-2-x-3-3-3-|-x-2-2-2-x-5-5-5-|---2-2-2---3-3-3-|---2-2-2---2-2-2---||
||o---0-0-0-x-3-3-3-|-x-3-3-3-x-5-5-5-|---0-0-0---3-3-3-|---3-3-3---2-2-2--o||
||------------------|-----------------|-----------------|-----------0-0-0---||
|
|   Gtr III
|   E E E e E E E e   E E E e E E E e   E E E e E E E e   E E E e E E E e
||----5-5-5---5-5-5-|-----------------|---5-5-5---5-5-5-|-----------0-0-0---||
||o---5-5-5---6-6-6-|---5-5-5---3-3-3-|---5-5-5---6-6-6-|---5-5-5---0-0-0--o||
||----5-5-5---5-5-5-|---5-5-5---4-4-4-|---5-5-5---5-5-5-|---5-5-5---1-1-1---||
||----7-7-7---7-7-7-|---5-5-5---5-5-5-|---7-7-7---7-7-7-|---5-5-5---2-2-2---||
||o-----------------|---3-3-3---5-5-5-|-----------------|---3-3-3----------o||
||------------------|-----------------|-----------------|-------------------||


                                       Interlude
                        D.S. al Coda &
                        D.S. al Coda
    Am    F/C       C       G/D           Am    F/C
  E E E E E E E E   E E E E E E E E     E E E E E E E E
|---0-0-0-x-1-1-1-|-x-0-0-0-x-3-3-3--||---0-0-0-x-1-1-1--|
|---1-1-1-x-1-1-1-|-x-1-1-1-x-3-3-3--||---1-1-1-x-1-1-1--|
|---2-2-2-x-2-2-2-|-x-0-0-0-x-4-4-4--||---2-2-2-x-2-2-2--|
|---2-2-2-x-3-3-3-|-x-2-2-2-x-5-5-5--||---2-2-2-x-3-3-3--|
|---0-0-0-x-3-3-3-|-x-3-3-3-x-5-5-5--||---0-0-0-x-3-3-3--|
|-----------------|------------------||------------------|
|
| Gtr II
| W                 W                   Q   E E E Q   E
|-----------------|------------------||------------------|
|-----------------|------------------||------------------|
|-----------------|------------------||------------------|
|-----------------|------------------||-----------0---0--|
|-----------------|------------------||-0---0------------|
|-----------------|------------------||-------3-1--------|
|
| Gtr III
| E E E e E E E e   E E E e E E E e     E E E e E E E e
|---5-5-5---5-5-5-|------------------||---5-5-5---5-5-5--|
|---5-5-5---6-6-6-|---5-5-5---3-3-3--||---5-5-5---6-6-6--|
|---5-5-5---5-5-5-|---5-5-5---4-4-4--||---5-5-5---5-5-5--|
|---7-7-7---7-7-7-|---5-5-5---5-5-5--||---7-7-7---7-7-7--|
|-----------------|---3-3-3---5-5-5--||------------------|
|-----------------|------------------||------------------|


  C           G/D          Am      F/C       C           E
  E E  E  E   E E  E E   E E E E E E E E   E E  E  E   E E  E E
|-x-0--0--0---x-3--3-3-|---0-0-0---1-1-1-|---0--0--0-----0--0-0-||
|-x-1--1--1---x-3--3-3-|---1-1-1---1-1-1-|---1--1--1-----0--0-0-||
|-x-0--0--0---x-4--4-4-|---2-2-2---2-2-2-|---0--0--0-----1--1-1-||
|-x-2--2--2---x-5--5-5-|---2-2-2---3-3-3-|---2--2--2-----2--2-2-||
|-x-3--3--3---x-5--5-5-|---0-0-0---3-3-3-|---3--3--3-----2--2-2-||
|----------------------|-----------------|---------------0--0-0-||
|
| E E +E  S S E Q.       Q   E E E Q   E   E E +E  S S E Q.
|----------------------|-----------------|----------------------||
|----------------------|-----------------|----------------------||
|---0-(0)--------------|-----------------|---0-(0)--------------||
|-2-------------0------|-----------0---0-|-2-------------2------||
|---------2p0-2--------|-0---0-----------|---------2p0-2--------||
|----------------------|-------3-1-------|----------------------||
|
| E E  E  e   E E  E e   E E E e E E E e   E E  E  e   E E  E e
|----------------------|---5-5-5---5-5-5-|---------------0--0-0-||
|---5--5--5-----3--3-3-|---5-5-5---6-6-6-|---5--5--5-----0--0-0-||
|---5--5--5-----4--4-4-|---5-5-5---5-5-5-|---5--5--5-----1--1-1-||
|---5--5--5-----5--5-5-|---7-7-7---7-7-7-|---5--5--5-----2--2-2-||
|---3--3--3-----5--5-5-|-----------------|---3--3--3------------||
|----------------------|-----------------|----------------------||


 4th Verse
    Am    F/C       C           G/D
  E E E E E E E E   E E  E  E   E E  E E
|---0-0-0-x-1-1-1-|-x-0--0--0---x-3--3-3-|
|---1-1-1-x-1-1-1-|-x-1--1--1---x-3--3-3-|
|---2-2-2-x-2-2-2-|-x-0--0--0---x-4--4-4-|
|---2-2-2-x-3-3-3-|-x-2--2--2---x-5--5-5-|
|---0-0-0-x-3-3-3-|-x-3--3--3---x-5--5-5-|
|-----------------|----------------------|
|
| Q   E E E Q   E   E E +E  S S E Q.
|-----------------|----------------------|
|-----------------|----------------------|
|-----------------|---0-(0)--------------|
|-----------0---0-|-2-------------0------|
|-0---0-----------|---------2p0-2--------|
|-------3-1-------|----------------------|
|
| E E E e E E E e   E E  E  e   E E  E e
|---5-5-5---5-5-5-|----------------------|
|---5-5-5---6-6-6-|---5--5--5-----3--3-3-|
|---5-5-5---5-5-5-|---5--5--5-----4--4-4-|
|---7-7-7---7-7-7-|---5--5--5-----5--5-5-|
|-----------------|---3--3--3-----5--5-5-|
|-----------------|----------------------|


    Am      F/C       F/C         E
  E E E E E E E E   E E  E  E   E E  E E
|---0-0-0---1-1-1-|---0--0--0-----0--0-0-|
|---1-1-1---1-1-1-|---1--1--1-----0--0-0-|
|---2-2-2---2-2-2-|---0--0--0-----1--1-1-|
|---2-2-2---3-3-3-|---2--2--2-----2--2-2-|
|---0-0-0---3-3-3-|---3--3--3-----2--2-2-|
|-----------------|---------------0--0-0-|
|
| Q   E E E Q   E   E E +E  S S E Q.
|-----------------|----------------------|
|-----------------|----------------------|
|-----------------|---0-(0)--------------|
|-----------0---0-|-2-------------2------|
|-0---0-----------|---------2p0-2--------|
|-------3-1-------|----------------------|
|
| E E E e E E E e   E E  E  e   E E  E e
|---5-5-5---5-5-5-|---------------0--0-0-|
|---5-5-5---6-6-6-|---5--5--5-----0--0-0-|
|---5-5-5---5-5-5-|---5--5--5-----1--1-1-|
|---7-7-7---7-7-7-|---5--5--5-----2--2-2-|
|-----------------|---3--3--3------------|
|-----------------|----------------------|


    Am    F/C       C           G/D
  E E E E E E E E   E E  E  E   E E  E E
|---0-0-0-x-1-1-1-|-x-0--0--0---x-3--3-3-|
|---1-1-1-x-1-1-1-|-x-1--1--1---x-3--3-3-|
|---2-2-2-x-2-2-2-|-x-0--0--0---x-4--4-4-|
|---2-2-2-x-3-3-3-|-x-2--2--2---x-5--5-5-|
|---0-0-0-x-3-3-3-|-x-3--3--3---x-5--5-5-|
|-----------------|----------------------|
|
| Q   E E E Q   E   E E +E  S S E Q.
|-----------------|----------------------|
|-----------------|----------------------|
|-----------------|---0-(0)--------------|
|-----------0---0-|-2-------------0------|
|-0---0-----------|---------2p0-2--------|
|-------3-1-------|----------------------|
|
| E E E e E E E e   E E  E  e   E E  E e
|---5-5-5---5-5-5-|----------------------|
|---5-5-5---6-6-6-|---5--5--5-----3--3-3-|
|---5-5-5---5-5-5-|---5--5--5-----4--4-4-|
|---7-7-7---7-7-7-|---5--5--5-----5--5-5-|
|-----------------|---3--3--3-----5--5-5-|
|-----------------|----------------------|


    Am      F/C       C           E
  E E E E E E E E   E E  E  E   E E  E E
|---0-0-0---1-1-1-|---0--0--0-----0--0-0-|
|---1-1-1---1-1-1-|---1--1--1-----0--0-0-|
|---2-2-2---2-2-2-|---0--0--0-----1--1-1-|
|---2-2-2---3-3-3-|---2--2--2-----2--2-2-|
|---0-0-0---3-3-3-|---3--3--3-----2--2-2-|
|-----------------|---------------0--0-0-|
|
| Q   E E E Q   E   E E +E  S S E Q.
|-----------------|----------------------|
|-----------------|----------------------|
|-----------------|---0-(0)--------------|
|-----------0---0-|-2-------------2------|
|-0---0-----------|---------2p0-2--------|
|-------3-1-------|----------------------|
|
| E E E e E E E e   E E  E  e   E E  E e
|---5-5-5---5-5-5-|---------------0--0-0-|
|---5-5-5---6-6-6-|---5--5--5-----0--0-0-|
|---5-5-5---5-5-5-|---5--5--5-----1--1-1-|
|---7-7-7---7-7-7-|---5--5--5-----2--2-2-|
|-----------------|---3--3--3------------|
|-----------------|----------------------|


      Am    F/C       C       G/D         Am      F/C       C       E
    E E E E E E E E   E E E E E E E E   E E E E E E E E   E E E E E E E E
||----0-0-0-x-1-1-1-|-x-0-0-0-x-3-3-3-|---0-0-0---1-1-1-|---0-0-0---0-0-0---||
||o---1-1-1-x-1-1-1-|-x-1-1-1-x-3-3-3-|---1-1-1---1-1-1-|---1-1-1---0-0-0--o||
||----2-2-2-x-2-2-2-|-x-0-0-0-x-4-4-4-|---2-2-2---2-2-2-|---0-0-0---1-1-1---||
||----2-2-2-x-3-3-3-|-x-2-2-2-x-5-5-5-|---2-2-2---3-3-3-|---2-2-2---2-2-2---||
||o---0-0-0-x-3-3-3-|-x-3-3-3-x-5-5-5-|---0-0-0---3-3-3-|---3-3-3---2-2-2--o||
||------------------|-----------------|-----------------|-----------0-0-0---||
|
|   Gtr III
|   E E E e E E E e   E E E e E E E e   E E E e E E E e   E E E e E E E e
||----5-5-5---5-5-5-|-----------------|---5-5-5---5-5-5-|-----------0-0-0---||
||o---5-5-5---6-6-6-|---5-5-5---3-3-3-|---5-5-5---6-6-6-|---5-5-5---0-0-0--o||
||----5-5-5---5-5-5-|---5-5-5---4-4-4-|---5-5-5---5-5-5-|---5-5-5---1-1-1---||
||----7-7-7---7-7-7-|---5-5-5---5-5-5-|---7-7-7---7-7-7-|---5-5-5---2-2-2---||
||o-----------------|---3-3-3---5-5-5-|-----------------|---3-3-3----------o||
||------------------|-----------------|-----------------|-------------------||


 5th Verse
      Am      F/C           C           G/D
  E   E   E E E   E   E E   E   E   E E E   E   E E
|-----0---0-0-x---1---1-1-|-x---0---0-0-x---3---3-3-|
|-----1---1-1-x---1---1-1-|-x---1---1-1-x---3---3-3-|
|-----2---2-2-x---2---2-2-|-x---0---0-0-x---4---4-4-|
|-----2---2-2-x---3---3-3-|-x---2---2-2-x---5---5-5-|
|-----0---0-0-x---3---3-3-|-x---3---3-3-x---5---5-5-|
|-------------------------|-------------------------|
|
|                                               ~
| |--3--|     |--3--|       |--3--|     |--3--|
| E E   E E e E E   E E e   E E   E E e E e   E E e
|-------------------------|-------------------------|
|-------------------------|---------------7-----7-5-|
|---5-----5-----5-----5---|---5-----5-----7-----7-5-|
|-------7---7-------7---7-|-------7---7-------------|
|-------------------------|-------------------------|
|-------------------------|-------------------------|
|
| Gtr III
| E   E   E e E   E   E e   E   E   E e E   E   E e
|-----5---5-5-----5---5-5-|-------------------------|
|-----5---5-5-----6---6-6-|-----5---5-5-----3---3-3-|
|-----5---5-5-----5---5-5-|-----5---5-5-----4---4-4-|
|-----7---7-7-----7---7-7-|-----5---5-5-----5---5-5-|
|-------------------------|-----3---3-3-----5---5-5-|
|-------------------------|-------------------------|


      Am          F/C           C           E
  E   E   E E E   E   E E   E   E   E E E   E   E E
|-----0---0-0-----1---1-1-|-----0---0-0-----0---0-0----|
|-----1---1-1-----1---1-1-|-----1---1-1-----0---0-0----|
|-----2---2-2-----2---2-2-|-----0---0-0-----1---1-1----|
|-----2---2-2-----3---3-3-|-----2---2-2-----2---2-2----|
|-----0---0-0-----3---3-3-|-----3---3-3-----2---2-2----|
|-------------------------|-----------------0---0-0----|
|
|                                               ~
| |--3--|     |--3--|       |--3--|     |--3--|
| E E   E E e E E   E E e   E E   E E e E e   E E e
|-------------------------|----------------------------|
|-------------------------|----------------------------|
|---5-----5-----5-----5---|---5-----5-----7-----7-5----|
|-------7---7-------7---7-|-------7---7----------------|
|-------------------------|----------------------------|
|-------------------------|----------------------------|
|
| E   E   E e E   E   E e   E   E   E e E   E   E e
|-----5---5-5-----5---5-5-|-----------------0---0-0----|
|-----5---5-5-----6---6-6-|-----5---5-5-----0---0-0----|
|-----5---5-5-----5---5-5-|-----5---5-5-----1---1-1----|
|-----7---7-7-----7---7-7-|-----5---5-5-----2---2-2----|
|-------------------------|-----3---3-3----------------|
|-------------------------|----------------------------|


      Am      F/C           C           G/D
  E   E   E E E   E   E E   E   E   E E E   E   E E
|-----0---0-0-x---1---1-1-|-x---0---0-0-x---3---3-3-|
|-----1---1-1-x---1---1-1-|-x---1---1-1-x---3---3-3-|
|-----2---2-2-x---2---2-2-|-x---0---0-0-x---4---4-4-|
|-----2---2-2-x---3---3-3-|-x---2---2-2-x---5---5-5-|
|-----0---0-0-x---3---3-3-|-x---3---3-3-x---5---5-5-|
|-------------------------|-------------------------|
|
|                                               ~
| |--3--|     |--3--|       |--3--|     |--3--|
| E E   E E e E E   E E e   E E   E E e E e   E E e
|-------------------------|-------------------------|
|-------------------------|-------------------------|
|---5-----5-----5-----5---|---5-----5-----4-----4-5-|
|-------7---7-------7---7-|-------7---7-------------|
|-------------------------|-------------------------|
|-------------------------|-------------------------|
|
| E   E   E e E   E   E e   E   E   E e E   E   E e
|-----5---5-5-----5---5-5-|-------------------------|
|-----5---5-5-----6---6-6-|-----5---5-5-----3---3-3-|
|-----5---5-5-----5---5-5-|-----5---5-5-----4---4-4-|
|-----7---7-7-----7---7-7-|-----5---5-5-----5---5-5-|
|-------------------------|-----3---3-3-----5---5-5-|
|-------------------------|-------------------------|


      Am          F/C           C           E
  E   E   E E E   E   E E   E   E   E E E   E   E E
|-----0---0-0-----1---1-1-|-----0---0-0-----0---0-0----|
|-----1---1-1-----1---1-1-|-----1---1-1-----0---0-0----|
|-----2---2-2-----2---2-2-|-----0---0-0-----1---1-1----|
|-----2---2-2-----3---3-3-|-----2---2-2-----2---2-2----|
|-----0---0-0-----3---3-3-|-----3---3-3-----2---2-2----|
|-------------------------|-----------------0---0-0----|
|
|                                               ~
| |--3--|     |--3--|       |--3--|     |--3--|
| E E   E E e E E   E E e   E E   E E e E e   E E e
|-------------------------|----------------------------|
|-------------------------|-----------------------5----|
|---5-----5-----5-----5---|---5-----5-----4-----4------|
|-------7---7-------7---7-|-------7---7----------------|
|-------------------------|----------------------------|
|-------------------------|----------------------------|
|
| E   E   E e E   E   E e   E   E   E e E   E   E e
|-----5---5-5-----5---5-5-|-----------------0---0-0----|
|-----5---5-5-----6---6-6-|-----5---5-5-----0---0-0----|
|-----5---5-5-----5---5-5-|-----5---5-5-----1---1-1----|
|-----7---7-7-----7---7-7-|-----5---5-5-----2---2-2----|
|-------------------------|-----3---3-3----------------|
|-------------------------|----------------------------|


    Am    F/C       C           G/D
  E E E E E E E E   E E  E  E   E E  E E
|---0-0-0-x-1-1-1-|-x-0--0--0---x-3--3-3-|
|---1-1-1-x-1-1-1-|-x-1--1--1---x-3--3-3-|
|---2-2-2-x-2-2-2-|-x-0--0--0---x-4--4-4-|
|---2-2-2-x-3-3-3-|-x-2--2--2---x-5--5-5-|
|---0-0-0-x-3-3-3-|-x-3--3--3---x-5--5-5-|
|-----------------|----------------------|
|
| Q   E E E Q   E   E E +E  S S E Q.
|-----------------|----------------------|
|-----------------|----------------------|
|-----------------|---0-(0)--------------|
|-----------0---0-|-2-------------0------|
|-0---0-----------|---------2p0-2--------|
|-------3-1-------|----------------------|
|
| E E E e E E E e   E E  E  e   E E  E e
|---5-5-5---5-5-5-|----------------------|
|---5-5-5---6-6-6-|---5--5--5-----3--3-3-|
|---5-5-5---5-5-5-|---5--5--5-----4--4-4-|
|---7-7-7---7-7-7-|---5--5--5-----5--5-5-|
|-----------------|---3--3--3-----5--5-5-|
|-----------------|----------------------|


    Am      F/C       C           E
  E E E E E E E E   E E  E  E   E E  E E
|---0-0-0---1-1-1-|---0--0--0-----0--0-0-|
|---1-1-1---1-1-1-|---1--1--1-----0--0-0-|
|---2-2-2---2-2-2-|---0--0--0-----1--1-1-|
|---2-2-2---3-3-3-|---2--2--2-----2--2-2-|
|---0-0-0---3-3-3-|---3--3--3-----2--2-2-|
|-----------------|---------------0--0-0-|
|
| Q   E E E Q   E   E E +E  S S E Q.
|-----------------|----------------------|
|-----------------|----------------------|
|-----------------|---0-(0)--------------|
|-----------0---0-|-2-------------2------|
|-0---0-----------|---------2p0-2--------|
|-------3-1-------|----------------------|
|
| E E E e E E E e   E E  E  e   E E  E e
|---5-5-5---5-5-5-|---------------0--0-0-|
|---5-5-5---6-6-6-|---5--5--5-----0--0-0-|
|---5-5-5---5-5-5-|---5--5--5-----1--1-1-|
|---7-7-7---7-7-7-|---5--5--5-----2--2-2-|
|-----------------|---3--3--3------------|
|-----------------|----------------------|


    Am    F/C       C           G/D
  E E E E E E E E   E E  E  E   E E  E E
|---0-0-0-x-1-1-1-|-x-0--0--0---x-3--3-3-|
|---1-1-1-x-1-1-1-|-x-1--1--1---x-3--3-3-|
|---2-2-2-x-2-2-2-|-x-0--0--0---x-4--4-4-|
|---2-2-2-x-3-3-3-|-x-2--2--2---x-5--5-5-|
|---0-0-0-x-3-3-3-|-x-3--3--3---x-5--5-5-|
|-----------------|----------------------|
|
| Q   E E E Q   E   E E +E  S S E Q.
|-----------------|----------------------|
|-----------------|----------------------|
|-----------------|---0-(0)--------------|
|-----------0---0-|-2-------------0------|
|-0---0-----------|---------2p0-2--------|
|-------3-1-------|----------------------|
|
| E E E e E E E e   E E  E  e   E E  E e
|---5-5-5---5-5-5-|----------------------|
|---5-5-5---6-6-6-|---5--5--5-----3--3-3-|
|---5-5-5---5-5-5-|---5--5--5-----4--4-4-|
|---7-7-7---7-7-7-|---5--5--5-----5--5-5-|
|-----------------|---3--3--3-----5--5-5-|
|-----------------|----------------------|


                      D.S.S. al Dbl. Coda
    Am      F/C       C           E
  E E E E E E E E   E E  E  E   E E  E E
|---0-0-0---1-1-1-|---0--0--0-----0--0-0---||
|---1-1-1---1-1-1-|---1--1--1-----0--0-0---||
|---2-2-2---2-2-2-|---0--0--0-----1--1-1---||
|---2-2-2---3-3-3-|---2--2--2-----2--2-2---||
|---0-0-0---3-3-3-|---3--3--3-----2--2-2---||
|-----------------|---------------0--0-0---||
|
| Q   E E E Q   E   E E +E  S S E Q.
|-----------------|------------------------||
|-----------------|------------------------||
|-----------------|---0-(0)----------------||
|-----------0---0-|-2-------------2--------||
|-0---0-----------|---------2p0-2----------||
|-------3-1-------|------------------------||
|
| E E E e E E E e   E E  E  e   E E  E e
|---5-5-5---5-5-5-|---------------0--0-0---||
|---5-5-5---6-6-6-|---5--5--5-----0--0-0---||
|---5-5-5---5-5-5-|---5--5--5-----1--1-1---||
|---7-7-7---7-7-7-|---5--5--5-----2--2-2---||
|-----------------|---3--3--3--------------||
|-----------------|------------------------||


   6th Verse
    &&
      Am    F/C       C       G/D         Am      F/C       C       E
    E E E E E E E E   E E E E E E E E   E E E E E E E E   E E E E E E E E   6x
||----0-0-0-x-1-1-1-|-x-0-0-0-x-3-3-3-|---0-0-0---1-1-1-|---0-0-0---0-0-0---||
||o---1-1-1-x-1-1-1-|-x-1-1-1-x-3-3-3-|---1-1-1---1-1-1-|---1-1-1---0-0-0--o||
||----2-2-2-x-2-2-2-|-x-0-0-0-x-4-4-4-|---2-2-2---2-2-2-|---0-0-0---1-1-1---||
||----2-2-2-x-3-3-3-|-x-2-2-2-x-5-5-5-|---2-2-2---3-3-3-|---2-2-2---2-2-2---||
||o---0-0-0-x-3-3-3-|-x-3-3-3-x-5-5-5-|---0-0-0---3-3-3-|---3-3-3---2-2-2--o||
||------------------|-----------------|-----------------|-----------0-0-0---||
|
|   E E E e E E E e   E E E e E E E e   E E E e E E E e   E E E e E E E e   6x
||----5-5-5---5-5-5-|-----------------|---5-5-5---5-5-5-|-----------0-0-0---||
||o---5-5-5---6-6-6-|---5-5-5---3-3-3-|---5-5-5---6-6-6-|---5-5-5---0-0-0--o||
||----5-5-5---5-5-5-|---5-5-5---4-4-4-|---5-5-5---5-5-5-|---5-5-5---1-1-1---||
||----7-7-7---7-7-7-|---5-5-5---5-5-5-|---7-7-7---7-7-7-|---5-5-5---2-2-2---||
||o-----------------|---3-3-3---5-5-5-|-----------------|---3-3-3----------o||
||------------------|-----------------|-----------------|-------------------||


                                       Out-Chorus
    Am    F/C       C       G/D           Am    F/C
  E E E E E E E E   E E E E E E E E     E E E E E E E E
|---0-0-0-x-1-1-1-|-x-0-0-0-x-3-3-3-||----0-0-0-x-1-1-1-|
|---1-1-1-x-1-1-1-|-x-1-1-1-x-3-3-3-||o---1-1-1-x-1-1-1-|
|---2-2-2-x-2-2-2-|-x-0-0-0-x-4-4-4-||----2-2-2-x-2-2-2-|
|---2-2-2-x-3-3-3-|-x-2-2-2-x-5-5-5-||----2-2-2-x-3-3-3-|
|---0-0-0-x-3-3-3-|-x-3-3-3-x-5-5-5-||o---0-0-0-x-3-3-3-|
|-----------------|-----------------||------------------|
|
| E E E e E E E e   E E E e E E E e     E E E e E E E e
|---5-5-5---5-5-5-|-----------------||----5-5-5---5-5-5-|
|---5-5-5---6-6-6-|---5-5-5---3-3-3-||o---5-5-5---6-6-6-|
|---5-5-5---5-5-5-|---5-5-5---4-4-4-||----5-5-5---5-5-5-|
|---7-7-7---7-7-7-|---5-5-5---5-5-5-||----7-7-7---7-7-7-|
|-----------------|---3-3-3---5-5-5-||o-----------------|
|-----------------|-----------------||------------------|
|
| Gtr II
| W                 W                   Q   E E E Q   E
|-----------------|-----------------||------------------|
|-----------------|-----------------||o-----------------|
|-----------------|-----------------||------------------|
|-----------------|-----------------||------------0---0-|
|-----------------|-----------------||o-0---0-----------|
|-----------------|-----------------||--------3-1-------|


  C           G/D          Am      F/C       C           E
  E E  E  E   E E  E E   E E E E E E E E   E E  E  E   E E  E E
|-x-0--0--0---x-3--3-3-|---0-0-0---1-1-1-|---0--0--0-----0--0-0--||
|-x-1--1--1---x-3--3-3-|---1-1-1---1-1-1-|---1--1--1-----0--0-0-o||
|-x-0--0--0---x-4--4-4-|---2-2-2---2-2-2-|---0--0--0-----1--1-1--||
|-x-2--2--2---x-5--5-5-|---2-2-2---3-3-3-|---2--2--2-----2--2-2--||
|-x-3--3--3---x-5--5-5-|---0-0-0---3-3-3-|---3--3--3-----2--2-2-o||
|----------------------|-----------------|---------------0--0-0--||
|
| E E  E  e   E E  E e   E E E e E E E e   E E  E  e   E E  E e
|----------------------|---5-5-5---5-5-5-|---------------0--0-0--||
|---5--5--5-----3--3-3-|---5-5-5---6-6-6-|---5--5--5-----0--0-0-o||
|---5--5--5-----4--4-4-|---5-5-5---5-5-5-|---5--5--5-----1--1-1--||
|---5--5--5-----5--5-5-|---7-7-7---7-7-7-|---5--5--5-----2--2-2--||
|---3--3--3-----5--5-5-|-----------------|---3--3--3------------o||
|----------------------|-----------------|-----------------------||
|
| E E +E  S S E Q.       Q   E E E Q   E   E E +E  S S E Q.
|----------------------|-----------------|-----------------------||
|----------------------|-----------------|----------------------o||
|---0-(0)--------------|-----------------|---0-(0)---------------||
|-2-------------0------|-----------0---0-|-2-------------2-------||
|---------2p0-2--------|-0---0-----------|---------2p0-2--------o||
|----------------------|-------3-1-------|-----------------------||


Duration Legend
---------------
W - whole; H - half; Q - quarter; E - 8th; S - 16th; T - 32nd; X - 64th; a - acciaccatura
+ - note tied to previous; . - note dotted; .. - note double dotted
Uncapitalized letters represent notes that are staccato (1/2 duration)
Irregular groupings are notated above the duration line
Duration letters will always appear directly above the note/fret number it represents the
duration for.  Duration letters with no fret number below them represent rests.  Multi-
bar rests are notated in the form Wxn, where n is the number of bars to rest for.  Low
melody durations appear below the staff

Tablature Legend
----------------
 h   - hammer-on
 p   - pull-off
 b   - bend
 pb  - pre-bend
 r   - bend release (if no number after the r, then release immediately)
 /\  - slide into or out of (from/to "nowhere")
 s   - legato slide
 S   - shift slide
  - natural harmonic
[n]  - artificial harmonic
n(n) - tapped harmonic
 ~   - vibrato
 tr  - trill
 T   - tap
 TP  - trem. picking
 PM  - palm muting
\n/  - tremolo bar dip; n = amount to dip
 \n  - tremolo bar down
 n/  - tremolo bar up
/n\  - tremolo bar inverted dip
 =   - hold bend; also acts as connecting device for hammers/pulls
 <>  - volume swell (louder/softer)
 x   - on rhythm slash represents muted slash
 o   - on rhythm slash represents single note slash

Misc Legend
-----------
 |  - bar
||  - double bar
||o - repeat start
o|| - repeat end
*|  - double bar (ending)
 :  - bar (freetime)
 $  - Segno
 &  - Coda
Tempo markers -  = BPM(8/16=s8/s16), where s8 = swing 8ths, s16 = swing 16ths

            
            
Suggest correction
Creating personal tab
Creating personal tab
You can edit any tab online and save it as your Personal.

You can edit, replace or remove any tab part or add personal notes – all changes will be seen only by you.

Personal tabs can be accessed anytime from any device, even offline.
Learn more »
comments
print report bad tab
guest
You may want to rate the tab now too:
select rating
Wanna post a correction for this tab? Suggest correction