Oops, an error
Loading. Please wait.

The Passenger Bass Tab

version 3
version 3

Interactive

55,113 views 24 this week
6 commentsread comments
1 2 3 4 5
x 21
add to favorites
launch autoscroll
font size
0
reset
guitar tuner
backing track
0:00
0:00
×
Best way to learn
"The Passenger"
Autoscroll
slow
fast
+/-
esc
set tempo
stop
Iggy Pop
The Passenger
Tabbed by MxFx_Punk_Rawk

Main Riff (Intro, verse, Outro)
G---------------------------------|
D---------------------------------|
A------8-8--3-3-------------------|
E-5-5------------3-3--------------|

Variation 1
G---------------------------------|
D---------------------------------|
A------8-8--3-3-535---------------|
E-5-5----------------5-3----------|

Variation 2
G---------------------------------|
D-----------10-12-10-9------------|
A------8-8------------------------|
E-5-5-----------------------------|

great song! I heard it on "Mat Hoffman's Pro BMX 2"
e-mail: Dave_Barrett_Neguac@hotmail.com
Suggest correction
comments
print report bad tab
6 comments total. Showing first comments.
+1 reply
chowduff 10 Jul 12, 2007 08:22 AM

NICE TAB SKATER BOY!

0 reply
jasonstatement 10 Jan 22, 2009 07:55 PM

Terrible tab skater fag. Just kidding its alright.

+1 reply
Jordo141 483 Jun 29, 2011 02:55 PM

I could swear the main riff is:

G---------------------------------
D--------------------2------------
A------8-8-------2-3---3----------
E-5-5-------8-8-------------------

guest
You may want to rate the tab now too:
select rating
Wanna post a correction for this tab? Suggest correction