Oops, an error
Loading. Please wait.

Gimme Danger Tab

version 1
version 1

Intro

Whole song

8,120 views 12 this week
1 commentread comment
1 2 3 4 5
please rate
add to favorites
launch autoscroll
font size
0
reset
how to read this tab
guitar tuner
Tab Pro tools
  • play this tab
  • loop segment
  • change instrument
  • show fretboard
  • metronome
×
Best way to learn
"Gimme Danger"
Autoscroll
slow
fast
+/-
esc
set tempo
stop
Damn! i never found the right tab for this song so i started to polish my ears 
and i got this.. its not complete yet

The notes:
E D C A
The TABS for the intro:
-------------------------------------------------------------------------------
                             GIMME DANGER - Iggy and The Stooges
-------------------------------------------------------------------------------
Tabbed by: Israel Bonanza
Email:slipperman77@hotmail.com

ITS INCOMPLETE.. FOR NOW

Tuning:Standard

INTRO
e|-x--2-0---x--0-------3-----------------------------------------------------|
B|-x-----0--3---3-------3----------------------------------------------------|
G|-x--------2----2----------2------------------------------------------------|
D|-2--------0--------2------2------------------------------------------------|
A|-2-----------------3----3-0------------------------------------------------|
E|-0-------------------------------------------------------------------------|

MAIN : repeat 4 times, then start singing
e|---------------------------------------------------------------------------|
B|----------------------------0----------------------------------------------|
G|-x---0--0-----------------0------------------------------------------------|
D|-x---4--2--------0------0--------------------------------------------------|
A|-2---x--x------0---0--3----------------------------------------------------|
E|-0---0--0--3-0-------------------------------------------------------------|
comments
We did not receive enough feedback on this tab! Please rate:
print report bad tab
1 2 3 4 5
1 comment total.
0 reply
bennyshambles78 wrote on March 20 2011, 06:05 am


-------------------------------------------------------------------------------
GIMME DANGER - Iggy and The Stooges
-------------------------------------------------------------------------------
Tabbed by: Benjamin White
Email: bennyshambles@gmail.com

This is just the riff & rhythm part. Solo is not included.

Tuning: 1/2 Step Down

INTRO
eb|-x--2-0---x--0-------3-----------------------------------------------------|
A#|-x-----0--3---3-------3-----2----------------------------------------------|
F#|-x--------2----2-------0--2--2---------------------------------------------|
C#|-2--------0--------2------2---2--------------------------------------------|
G#|-2-----------------3------0------------------------------------------------|
Eb|-0-------------------------------------------------------------------------|

MAIN RIFF: repeat 4 times, then start singing
eb|---------------------------------------------------------------------------|
A#|----------------------------0----------------------------------------------|
F#|-x---0--0-----------------0------------------------------------------------|
C#|-x---4--2---2-----0-----2--------------------------------------------------|
G#|-2---4--2---2-------0-3----------------------------------------------------|
Eb|-0---0--0--0--0-2----------------------------------------------------------|

VARIATION OF MAIN RIFF: Throw in every 3rd or 4th cycle
eb|---------------------------------------------------------------------------|
A#|--------------------------3-0----------------------------------------------|
F#|-x------------------------0------------------------------------------------|
C#|-x---4--2---2-----0-----2--------------------------------------------------|
G#|-2---4--2---2-------0-3----------------------------------------------------|
Eb|-0---0--0--0--0-2----------------------------------------------------------|

CHANGE
eb|-x-0---------2-0--0------3----------------------x-0-----2-0-----3----------|
A#|-3--3--3--------0--0------3--3------2--2H3P2----3--3-------0-----3-----2---|
F#|-2---2--2---x-------0--0---0--0---2--2------2---2---2--x------0---0--2--2--|
C#|-0-------0--x----------2-------2--2---2---------0------X------2------2---2-|
G#|------------2----------3----------0--------------------2------3------0-----|
Eb|------------0------------------------------------------0-------------------|

Back to MAIN RIFF/VERSE

CHANGE

BRIDGE = Em(Ebm) to G(F#) to Dsus2(C#sus2) back to Em(Ebm) // then just Dsus2(C#sus2) to Em(Ebm)

OUTRO is the same as the INTRO, but just stretched out.

The chord sequence: Em(Ebm) to Dsus2(C#sus2) to Cadd9(Badd9) to A(G#)

FADE OUT...

I want to post or [tab]
guest
You may want to rate the tab now too:
select rating
Please do not post tabs as comments. Select "correction" instead!