Oops, an error
Loading. Please wait.

Penetration Tab

7,990 views 18 this week
2 commentsread comments
1 2 3 4 5
accurate
x 2
add to favorites
launch autoscroll
font size
0
reset
how to read this tab
guitar tuner
Tab Pro tools
  • play this tab
  • loop segment
  • change instrument
  • show fretboard
  • metronome
Autoscroll
slow
fast
+/-
esc
set tempo
stop
Contributor
Difficulty
novice
-------------------------------------------------------------------------------
                             Penetration - Iggy and the Stooges
-------------------------------------------------------------------------------
Tabbed by: maxduffs
Email: maxduffield@hotmail.co.uk

Tuning: Standard (EADGBe)

I noticed the other tab for this song was slightly wrong. This is how I play it:

notes in brackets are optional (but sound cool)

e|--------------(0)----------------------------------------------------------|
B|---------------1-----------------------------------------------------------|
G|--------0h2---(0)---------0h2--0----------------0h2--0----------------0-2--|
D|------------------------------------2---------------------------2-0-2------|
A|--0-0----------------0-----------0---------0-0----------0-3-0-3------------|
E|---------------------------------------------------------------------------|

e|---------------------------------------------------------------------------|
B|---------------------------------------------------------------------------|
G|-------0h2--0-----0h2--0---------------0h2--0----------------0-2-----------|
D|-----------------------------2-------------------------2-0-2---------------|
A|--0-0----------0----------0-------0-0----------0-3-0-3---------------------|
E|---------------------------------------------------------------------------|



e|--------------(0)----------------------------------------------------------|
B|---------------1-----------------------------------------------------------|
G|--------0h2---(0)---------0h2--0----------------0h2--0----------------0-2--|
D|------------------------------------2---------------------------2-0-2------|
A|--0-0----------------0-----------0---------0-0----------0-3-0-3------------|
E|---------------------------------------------------------------------------|

e|---------------------------------------------------------------------------|
B|---------------------------------------------------------------------------|
G|-------0h2--0-----0h2--0---------------0h2--0----------------0-2-----------|
D|-----------------------------2-------------------------2-0-2---------------|
A|--0-0----------0----------0-------0-0----------0-3-0-3---------------------|
E|---------------------------------------------------------------------------|


This is the riff for the entire song, just keep repeating it.
 
comments
We did not receive enough feedback on this tab! Please rate:
print report bad tab
1 2 3 4 5
2 comments total.
0 reply
Indie Purist wrote on March 29 2010, 02:09 pm

it should be a half-step down and i think the riff goes like this


e|--------------(0)----------------------------------------------------------|
B|---------------1-----------------------------------------------------------|
G|--------0h2---(0)---------0h2--0----------------0h2--0----------------0-2--|
D|------------------------------------2---------------------------2-0-2------|
A|--0-0----------------0-----------0---------0-0----------0-3-0-3------------|
E|---------------------------------------------------------------------------|

0 reply
Indie Purist wrote on March 29 2010, 02:11 pm

whoops, i meant like this:


e|--------------(0)----------------------------------------------------------|
B|---------------1--------------------------------------------------------1--|
G|--------0h2---(0)---------0h2--0----------------0h2--0----------------0----|
D|------------------------------------2---------------------------2-0-2------|
A|--0-0----------------0-----------0---------0-0----------0-3-0-3------------|
E|---------------------------------------------------------------------------|


just one note difference, pretty good tab

I want to post or [tab]
guest
You may want to rate the tab now too:
select rating
Please do not post tabs as comments. Select "correction" instead!