Oops, an error
Loading. Please wait.

In This City Bass Tab

1,031 views 1 this week
no commentswrite comment
1 2 3 4 5
please rate
add to favorites
launch autoscroll
font size
0
reset
guitar tuner
Autoscroll
slow
fast
+/-
esc
set tempo
stop
Help us to improve Ultimate-Guitar.com Take our survey!
×
Author
Intro: (0:51)
G|-----|---------------------------|
D|-----|---------------------------|
A|---1-|-4--4--4----4--4-4-4-4-4-4-|
E|-4---|---------2-----------------|

Chorus 1:
G|-----------------|-----------------|-----------------|-----------------|
D|-----------------|-----------------|-----------------|-----------------|
A|-4---4---4-1-4---|-----------3-----|-1---1---1-4-1---|-------------1-4-|
E|---------------4-|---4-4---4---4-2-|---------------2-|---2-2---2-4-----|

G|-----------------|-----------------|-----------------|-----------------|
D|-----------------|-----------------|-----------------|-----------------|
A|-4---4---4-1-4---|-----------3---1-|-4---4---4-----4-|-4-4-4-4-4-4-4-4-|
E|---------------4-|---4-4---4---4---|-----------2-----|-----------------|

Verse: (Staccato)
G|-----------------|
D|-----------------|
A|-4-4-4-4-4-4-4-4-|
E|-----------------|

Chorus 2+:
G|-----------------|-----------------|-----------------|-----------------|
D|-----------------|-----------------|-----------------|-----------------|
A|-4---4---4-1-4---|-----------3-----|-1---1---1-4-1---|-------------1-4-|
E|---------------4-|---4-4---4---4-2-|---------------2-|---2-2---2-4-----|

G|-----------------|-----------------|-----------------|-----------------|
D|-----------------|-----------------|-----------------|-----------------|
A|-4---4---4-1-4---|-----------3---1-|-4---4---4-1-----|-------------1-1-|
E|---------------4-|---4-4---4---4---|-------------4-2-|---2-2---2-4-----|

G|-----------------|-----------------|-----------------|-----------------|
D|-----------------|-----------------|-----------------|-----------------|
A|-4---4---4-1-4---|-----------3-----|-1---1---1-4-1---|-------------1-4-|
E|---------------4-|---4-4---4---4-2-|---------------2-|---2-2---2-4-----|

G|-----------------|-----------------|-----------------|-----------------|
D|-----------------|-----------------|---------------4-|-4-4-4-4-4-4-4-4-|
A|-4---4---4-1-4---|-----------3---1-|-4---4---4-1-4---|-----------------|
E|---------------4-|---4-4---4---4---|-----------------|-----------------|
Suggest correction
Give kudos to tab author, rate the tab!
1 2 3 4 5
comments
print report bad tab
guest
You may want to rate the tab now too:
select rating
Wanna post a correction for this tab? Suggest correction