Oops, an error
Loading. Please wait.

Priva Resuello Tab

102 views 1 this week
no commentswrite comment
1 2 3 4 5
please rate
add to favorites
launch autoscroll
font size
0
reset
how to read this tab
guitar tuner
Tab Pro tools
  • play this tab
  • loop segment
  • change instrument
  • show fretboard
  • metronome
×
Best way to learn
"Priva Resuello"
Autoscroll
slow
fast
+/-
esc
set tempo
stop
Contributor
Priva Resuello
Music by Ignacio "Indio" Figueredo
Arranged for guitar by Alirio Diaz
Tablature by E.Ceja - May 2006
e-mail: chingon93@excite.com

Tune 5th string to G 
Tune 6th string to D 

e|----5-|-7-7---5-5-|| ---2-3-3---0-|-5--5-------5-|---2---3-|
b|-8----|-0---8-----|| -------------|-5----5-------|---3---5-|
g|------|-0---------||*-------------|-5------5-----|-----2---|  
d|------|-------0---||*---------0---|-0--------0---|-------0-|
g|------|-0---------|| -0-----------|-0------------|-0-------|
d|------|-----------|| -------------|--------------|---------|

e|-5-5--2--3- |----0-2-------|-3--3-------3-|---3---5-|
b|-7-7--3-----|----0-1-----3-|-0----0-------|---5---7-|
g|------2-----|--------2-----|-2------2-----|-----0---|    
d|------------|----------0---|-0--------0---|-------0-|
g|-0----------|-0------------|-0------------|-0-------|
d|------------|--------------|--------------|---------|

                                              II...... 
e|-7-7-----5-5-|-2-3-3----0-|-5--5-------5-|---2----3-|
b|-8-8--8--5-5-|-0-0-0----0-|-3----3-------|---3----2-| 
g|------9------|-2-2-2----0-|-5------5-----|-----2----|    
d|---------0---|-0-0--------|----------0---|--------2-|
g|-0-----------|-0------0---|-0------------|----------|
d|-------------|------------|--------------|-0--------|

e|-5-5--2/3-3-|---0--2------|-3--7--------7-|-7---5-----|
b|------4/5-5-|------3--1-1-|-0----8--------|---8---7h8-| 
g|-5-5--------|-------------|-2------7------|-----------|   
d|------------|-----------0-|---------------|-----------|
g|------------|-------------|-0--------0----|-----------|
d|-0----------|-0-----------|---------------|-----------|

  V(1/2)................... III(2/6)...
e|---5-5-5-5-|----5---------|---3-3-3-3-|---3p0-2---0-|
b|-5---------|------7h8-5h7-|-3---------|---------3---|
g|-5-----5---|----------5---|-4-----4---|---2p0-------|  
d|-----0-----|------0-------|-----0-----|-0-------4---|
g|-0---------|--0-----------|-0---------|-0-----------|
d|-----------|--------------|-----------|-------------|

e|---2-2-2-2-|---2---0-----|---0-0-0-0-|---0-------0-|
b|-1---------|-----3---1-3-|-0---------|---0---0-----| 
g|-2-----2---|---------0---|-2-----2---|---1-----0---|    
d|-----0-----|-----4-------|-----0-----|-----3-------|
g|-----------|-------------|-0---------|-------------|
d|-0---------|-0-----------|-----------|-0-----------|

    II.......                 V(4/6).......
e|-----------|------------|----)7--7--)7--7-|-----------|
b|---3-3-3-3-|-(3-0-1---0-|----(5--5--(7--7-|-----------|
g|-2---------|-)1-----2---|----)7--7--)7--7-|-4p0-2---0-|    
d|-4-----2---|-(3-----2---|----(5--5--(5--5-|-------4---|
g|-----2-----|------------|-0--)0--0--)0--0-|-----------|
d|-0---------|-)0---------|----(0--0--------|-----------|

  V(1/2).........             III(1/2)........
e|------)5--5--5-|-----------|-)3--3--3--3--3-|-----------|
b|------(5--6--7-|-----------|-(5--5--5--3--3-|-----------|
g|---5--)5--5--5-|-2---0-----|-)3--3--4--4--4-|-----------|    
d|---0--(0--0--0-|---4---2h4-|-(0--0--0--0--0-|-5p2-4-0-2-|
g|------)0--0--0-|-----------|-)0--0--0--0--0-|-----------|
d|-0----(0--0--0-|-----------|-(0--0--0--0--0-|-----------|

                  II........
e|---)0--0--0--0-|---2-------0-|-)0--0--0--0--0-|-12----10----8-|
b|---(3--3--3--3-|---3---3---3-|-(0--0--0--0--0-|----13----12---|
g|---)2--2--5--5-|-------2-----|-)0--0--0--0--0-|---------------|    
d|---(4--4--4--4-|---------4---|-(0--0--0--0--0-|---------------|
g|---)5--5--5--5-|-----2-------|-)0--0--0--0--0-|---------------|
d|-0-------------|-0-----------|-(0--0--0--0--0-|---------------|

1st...................................................
e|-------)10--10--10-|-----------|---3--5-|-7-7---5-5-|
b|---10--(10--10--10-|-----------|---0----|-----8-----| 
g|----9--)9----9---9-|-----------|---0----|-----------|  
d|-0----------10--10-|-----------|--------|-------0---|
g|-------------------|-7---5-----|-0------|-0---------|
d|-------------------|---9---7/9-|--------|-----------|

2nd..................................................   Fine 
e|-------)10--10--10-|-----------|----------|----12--||
b|---10--(10--10--10-|-----------|-3--1---0-|----12--|| 
g|----9--)9----9---9-|-----------|-1----2---|--------||  
d|-0----------10--10-|-----------|-3----2---|--------||
g|-------------------|-7---5-----|----------|--0-----||
d|-------------------|---9---7/9-|-0--------|--------||
comments
We did not receive enough feedback on this tab! Please rate:
print report bad tab
1 2 3 4 5
I want to post or [tab]
guest
You may want to rate the tab now too:
select rating
Please do not post tabs as comments. Select "correction" instead!