Oops, an error
Loading. Please wait.

Views As The Sun Goes Down chords

22 views 3 this week
no commentswrite comment
1 2 3 4 5
2 more votes to show rating
add to favorites
×
Save as Personal and add changes to this tab that will be seen only by you. Learn more ›
×
You can save this tab as Personal to edit and correct it or add notes. All changes will be seen only by you. Learn more »
launch autoscroll
font size
0
reset
transpose
0
reset
display chords
guitar tuner
edit
Autoscroll
slow
fast
+/-
esc
set tempo
stop
Strumming
There is no strumming pattern for this song yet. and get +5 IQ
Artist: Ignacio Vila Ortiz
Song: Views As The Sun Goes Down
Capo 3

Link to the song:
https://www.youtube.com/watch?v=lmUbxD3RdJ0

[Intro]
E|-----------------------------------2p3--------------------0----x----0---------|
B|-------------0-----0h3-------------------3--------3-------3----x----0---------|
G|--------0h2-----0--0h2------2----------------2----4-------4----x----0---------|
D|-----0-------------0-----0-----0------------------4---4--------x--------------|
A|---------------------------------------------------------------x----2---------|
E|--3---------------------------------------------------------------------------|

E|--------------0-----------------------0----x----0-----------------------------|
B|--------0-------0-------------3-------3----x----0--------0-----0p1-------0h3--|
G|-----0-----0-------0-----2----4-------4----x----0------0---0-------0p2---0h2--|
D|--2------------------2--------4---4--------x--------2--------------------0----|
A|-------------------------------------------x----2-----------------------------|
E|------------------------------------------------------------------------------|

[Verse]
G         Bm                    C         G
I've been walking baby, on this beautiful beach
         Bm        Em             C                G
With the sun on my face, watching boats under blue sky
      D         C      G                  C           D                   G
And I hear this girl beside me, and she's telling her man he's gonna be a dad
         Bm   Em                          C            G
And they both smiled and laughed, and for so long they hugged
      C      G            D        G
These are my views as the sun goes down
G      Bm            C             G
So I decided to take walk down the beach
Bm                      Em                C                G
Along with the crushing waves and nothing more than just a beer
      D         C           G               C         D          G
And I see these little kids playing, as his father is taking photographs
        Bm        Em            C             G
So when they grow old, they can look back and smile
      C      G            D        G
These are my views as the sun goes down

(Play G chord 4 times, then D and C)

[Chorus]
C      D           G      G D C
As the day ends to rest
C           D            G      G D C
The burning sun does its best
C          D        Bm      Em
Setting on fire the endless waves
C              D
Relaxing every soul

[Verse]
G      Bm                   C               G
Then I saw you baby, as you walked into the bar
       Bm    Em        C               G
With a white dress and flowers in your hair
      D        C       G                  C            D               G
And I sat down next to you, and with your tender green eyes you looked at me
    Bm     Em            C         G
You golden hair and your beautiful face
      C      G            D        G
These are my views as the sun goes down
G      Bm                        C                G
And we went to that cliff that's right beside the sea
          Bm              Em                C                  G
Where the view takes your breath, you don't want to leave that place
    D             C       G            C      D                G
And you said, how often we forget, the little things that mean so much
    Bm              Em        C                G
The friendship, the laugh and someone's loving touch
      C      G            D        G
These are my views as the sun goes down

[Chorus]
C      D           G      G D C
As the day ends to rest
C           D            G      G D C
The burning sun does its best
C          D        Bm      Em
Setting on fire the endless waves
C              D
Relaxing every soul
C      D           G      G D C
As the day ends to rest
C           D             G      G D C
The burning sun starts to fade
C       D                 Bm            Em
Leaving clear path to the first shining stars
C              D
Now we being to dream

[Outro]
E|-----------------------------------2p3--------------------0----x----0---------|
B|-------------0-----0h3-------------------3--------3-------3----x----0---------|
G|--------0h2-----0--0h2------2----------------2----4-------4----x----0---------|
D|-----0-------------0-----0-----0------------------4---4--------x--------------|
A|---------------------------------------------------------------x----2---------|
E|--3---------------------------------------------------------------------------|

E|--------------0-----------------------0----x-----------------x----------------|
B|--------0-------0-------------3-------3----x----0---3----3---x---0------------|
G|-----0-----0-------0-----2----4-------4----x----0---0h2--2---x---0------------|
D|--2------------------2--------4---4--------x--------0----0---x----------------|
A|-------------------------------------------x----2------------x----------------|
E|-----------------------------------------------------------------3------------|

Legend:
1.Bend:       15b(17) [b] (Bend the 15 Fret full step)
2.Vibrato:    15~ [~]
3.Pull Off:   14p15 [p]
4.Hammer-On:  7h9 [h]
5.Slide Up:   7/9 [/]
6.Slide Down: 9\7 [\]
7.Release:    14b(16)r [r](Bend and then release to 14 fret)
8.Bend Down:  3bd         (Bend the string a little down)
Suggest correction
Creating personal tab
Creating personal tab
You can edit any tab online and save it as your Personal.

You can edit, replace or remove any tab part or add personal notes – all changes will be seen only by you.

Personal tabs can be accessed anytime from any device, even offline.
Learn more »
Give kudos to tab author, rate the tab!
1 2 3 4 5
comments
print report bad tab
guest
You may want to rate the tab now too:
select rating
Wanna post a correction for this tab? Suggest correction