Oops, an error
Loading. Please wait.

Live For Better Days Tab

version 2
version 2

Whole song

  • This version uses Drop-D, so that the intermezzo c... Show more
by Ignite
88 views 1 this week
no commentswrite comment
1 2 3 4 5
3 more votes to show rating
add to favorites
launch autoscroll
font size
0
reset
how to read this tab
guitar tuner
Autoscroll
slow
fast
+/-
esc
set tempo
stop
Author
Difficulty
Tuning
novice
D A D G B E
About this tab version
This version uses Drop-D, so that the intermezzo chords can be played as intended. It still uses power chords only though, so you might wanna add some variation on your own later on in the song. Was this info helpful? Yes No
(Verse1)
Save it for tomorrow ...
e----------------------------------|
B----------------------------------|
G--6-6-6-6-----------------6-6-6-6-|
D--6-6-6-6-6-6-6-6-4-4-4-4-6-6-6-6-|
A--4-4-4-4-6-6-6-6-4-4-4-4-4-4-4-4-|
D----------6-6-6-6-4-4-4-4---------| x2

(Chorus)
So I say goodnight ...
e----------------------------------|
B----------------------------------|
G--6-6-6-6-------------------------|
D--6-6-6-6-4-4-4-4-8-8-8-8-6-6-6-6-|
A--4-4-4-4-4-4-4-4-8-8-8-8-6-6-6-6-|
D----------4-4-4-4-8-8-8-8-6-6-6-6-| x2

("Intermezzo1")
e----------------------------------|
B----------------------------------|
G--6-6-6-6-6-6-6-6-6-6-6-6-6-6-6-6-|
D--6-6-6-6-6-6-6-6-6-6-6-6-6-6-6-6-|
A--4-4-4-4-4-4-4-4-4-4-4-4-4-4-4-4-|
D----------4-4-4-4---------4-4-4-4-|

(Verse2 as Verse1)

(Chorus)

(Bridge)
    Oh! I  need to end this violence
e----------------------------------|
B----------------------------------|
G----------------------------------|
D--4-4-4-4-8-8-8-8-6-6-6-6-4-4-4-4-|
A--4-4-4-4-8-8-8-8-6-6-6-6-4-4-4-4-|
D--4-4-4-4-8-8-8-8-6-6-6-6-4-4-4-4-|

    in a   place that I call home ...
e----------------------------------|
B----------------------------------|
G----------------------------------|
D--4-4-4-4-8-8-8-8-6-6-6-6-4-4-4-4-|
A--4-4-4-4-8-8-8-8-6-6-6-6-4-4-4-4-|
D--4-4-4-4-8-8-8-8-6-6-6-6-4-4-4-4-|

("Intermezzo2")
Silence in me,  silence in me
e----------------------------------|
B----------------------------------|
G--6-6-6-6-6-6-6-6-6-6-6-6-6-6-6-6-|
D--6-6-6-6-6-6-6-6-6-6-6-6-6-6-6-6-|
A--4-4-4-4-4-4-4-4-4-4-4-4-4-4-4-4-|
D----------4-4-4-4---------4-4-4-4-|

So I say 
N/C

goodnight
e----------------------------------|
B----------------------------------|
G--6-6-6-6-------------------------|
D--6-6-6-6-4-4-4-4-8-8-8-8-6-6-6-6-|
A--4-4-4-4-4-4-4-4-8-8-8-8-6-6-6-6-|
D----------4-4-4-4-8-8-8-8-6-6-6-6-| x2
Suggest correction
Give kudos to tab author, rate the tab!
1 2 3 4 5
comments
print report bad tab
guest
You may want to rate the tab now too:
select rating
Wanna post a correction for this tab? Suggest correction