Oops, an error
Loading. Please wait.

Beat It solo tab

version 1
version 1

Solo

Whole song

Interactive

45,263 views 3 this week
2 commentsread comments
1 2 3 4 5
x 5
add to favorites
×
Save as Personal and add changes to this tab that will be seen only by you. Learn more ›
×
You can save this tab as Personal to edit and correct it or add notes. All changes will be seen only by you. Learn more »
launch autoscroll
font size
0
reset
how to read this tab
guitar tuner
edit
Autoscroll
slow
fast
+/-
esc
set tempo
stop
Author
Difficulty
it is the first part of the song.
there are somme little foulds, sorry.

igor presnyakov his site: http://igorpresnyakov.blogspot.com/

BEAT IT  --  MICHAEL JACKSON  --   LENNY DK  --  this is how to play it:

http://www.youtube.com/watch?v=IeVsHYVoFxY

E:-----|-----------------|-----------------|-----------------|-------------|-|
B:-----|-----------------|-----------------|-----------------|-------------|-|
G:-----|-----------------|-----------------|-----------------|-------------|-|
D:-----|-------5-2-----4-|---2-------------|-------5-2-----4-|---2---------|-|
A:-----|-----2-----------|-----5---5-------|-----2-----------|-----5-------|-|
E:--0--|---3-------------|---------------0-|---3-------------|-------------|-| x2

E:---7-7-7--x-x--10-7--x-x--6/7-|--6/7-7-x-7--5h7p5-5--|--3h5p3---------------------|-|
B:---8-8-8--x-x---7-7--x-x--6/7-|--7/8-8-x-8--5---5-5--|--------x-x-5---8--7-5------|-|
G:---9-9-9--x-x---7-7--x-x--6/7-|--8/9-9-x-9--5---5-5--|-----------------------7-7--|-|
D:------------------------------|----------------------|----------------------------|-|
A:------------------------------|----------------------|----------------------------|-|
E:------------------------------|----------------------|----------------------------|-|

E:------x-x---------|-|
B:-8----x-x---------|-|
G:---9--x-x-9--7-7--|-|
D:------x-x-9--7-7--|-|
A:------x-x-7--5-5--|-|
E:------x-x---------|-|

E:---7-7-7--x-x--10-7--x-x--6/7-|--6-7-7-x-7--5h7p5-5--|--3h5p3---------------------|-|
B:---8-8-8--x-x---7-7--x-x--6/7-|--7-8-8-x-8--5---5-5--|--------x-x-5---8--7-5------|-|
G:---9-9-9--x-x---7-7--x-x--6/7-|--8-9-9-x-9--5---5-5--|-----------------------7-7--|-|
D:------------------------------|----------------------|----------------------------|-|
A:------------------------------|----------------------|----------------------------|-|
E:------------------------------|----------------------|----------------------------|-|

E:------x-x----7-10-7--6/7--|--6/7------------7-7------6/7--|--6/7--7-x-x--9--x-8--x--7--|-|
B:-8----x-x----7--7-7--6/7--|--6/7------------8---8----6/7--|--6/7--7-x-x--10-x-9--x--8--|-|
G:---9--x-x-9--7--7-7--6/7--|--6/7-----0------9-----9--6/7--|--6/7--7-x-x--11-x-10-x--9--|-|
D:------x-x-9---------------|--------0--------9-------------|--------------11-x-10-x—-9--|-|
A:------x-x-7---------------|------------7~~--7-------------|--------------9--x-8--x--7--|-|
E:------x-x-----------------|------7------------------------|----------------------------|-|

E:--5--3--x--2--/3--|--5--3--x--3--|-|   |--5--5-5--5---3-3--3--x-x--|-|
B:--6--4--x--3--/4--|--6--4--x--4--|-|   |--6--6-6--6---4-4--4--x-x--|-|
G:--7--5--x--4--/5--|--7--5--x--5--|-|   |--7--7-7--7---5-5--5--x-x--|-|
D:--7--5--x--4--/5--|--7--5--x--5--|-|   |--7--7-7--7---5-5--5--x-x--|-|
A:--5--3--x--2--/3--|--5--3--x--3--|-|   |--5--5-5--5---3-3--3--x-x--|-|
E:------------------|--------------|-|x2 |----------------------x-x--|-|

E:---7-7-7--x-x--10-7--x-x--6/7-|--6/7-7-x-7—-5h7p5-5--|--3h5p3---------------------|-|
B:---8-8-8--x-x---7-7--x-x--6/7-|--7/8-8-x-8--5---5-5--|--------x-x-5---8--7-5------|-|
G:---9-9-9--x-x---7-7--x-x--6/7-|--8/9-9-x-9--5---5-5--|-----------------------7-7--|-|
D:------------------------------|----------------------|----------------------------|-|
A:------------------------------|----------------------|----------------------------|-|
E:------------------------------|----------------------|----------------------------|-|

E:--7-7--x--7-7--5-5--5---|-|
B:--8-8--x--8-8--6-6--6---|-|
G:--9-9--x--9-9--7-7--7---|-|
D:---------------7-7--7---|-|
A:---------------5-5--5---|-|
E:------------------------|-|

E:---7-7-7--x-x--10-7--x-x--6/7-|--6/7-7-x-7--5h7p5-5--|--3h5p3-----3h5p3-------------|-|
B:---8-8-8--x-x---7-7--x-x--6/7-|--7/8-8-x-8--5---5-5--|--------x-x-------5~---7-5----|-|
G:---9-9-9--x-x---7-7--x-x--6/7-|--8/9-9-x-9--5---5-5--|-------------------------7-7~-|-|
D:------------------------------|----------------------|------------------------------|-|
A:------------------------------|----------------------|------------------------------|-|
E:------------------------------|----------------------|------------------------------|-|

E:------x-x----7-10-7--6/7--|--6/7------------7-7------6/7--|--6/7--7-x-x--9--x-8--x--7--|-|
B:-8----x-x----7--7-7--6/7--|--6/7------------8---8----6/7--|--6/7--7-x-x--10-x-9--x--8--|-|
G:---9--x-x-9--7--7-7--6/7--|--6/7-----0------9-----9--6/7--|--6/7--7-x-x--11-x-10-x--9--|-|
D:------x-x-9---------------|--------0--------9-------------|--------------11-x-10-x—-9--|-|
A:------x-x-7---------------|------------7~~--7-------------|--------------9--x-8--x--7--|-|
E:------x-x-----------------|------7------------------------|----------------------------|-|

E:--5--3--x--2--/3--|--5--3--x--3--|-|
B:--6--4--x--3--/4--|--6--4--x--4--|-|
G:--7--5--x--4--/5--|--7--5--x--5--|-|
D:--7--5--x--4--/5--|--7--5--x--5--|-|
A:--5--3--x--2--/3--|--5--3--x--3--|-|
E:------------------|--------------|-|x2

E:-7--7------------------x-x-6/7--|--6/7----x-x--9--x--8---7-7-|--5--3--x--2--/3--|--5--3--x--3||
B:-7--7-------------8-8--x-x-6/7--|--6/7----x-x--10-x--9---8-8-|--6--4--x--3--/4--|--6--4--x--4||
G:-7--7-----0-------9-9--x-x-6/7--|--6/7----x-x--11-x--10--9-9-|--7--5--x--4--/5--|--7--5--x--5||
D:--------0--------------x-x------|---------x-x--11-x--10--9-9-|--7--5--x--4--/5--|--7--5--x--5||
A:------------7~~---7-7-----------|---------x-x--9--x--8---7-7-|--5--3--x--2--/3--|--5--3--x--3||
E:----7---------------------------|-------7-x-x-----x----------|------------------|------------||x2

E:-3-3--------------|--3-3\0--x-x--------------x-x--|--3--3p0—3p0-------------x-x-x-x--|-|
B:-5-3--------------|--3-3\0--x-x--------------x-x--|--3--3p0-3p0-------------x-x-x-x--|-|
G:-4-4--------------|--3-3\0--x-x--------------x-x--|--3--3p0-3p0-------------x-x-x-x--|-|
D:----------2-2--2--|---------x-x-2--2-2—-2~---x-x--|--------------2--2-2—-2~-x-x-x-x--|-|
A:----------2-2--2--|---------x-x-2--2-2—-2~---x-x--|--------------2--2-2—-2~-x-x-x-x--|-|
E:-----0~~~-0-0--0--|---------x-x-0--0-0—-0~---x-x--|--------------0--0-0—-0~-x-x-x-x--|-|

E:-3--3p0—3p0--------------|-|
B:-3--3p0-3p0--------------|-|
G:-3--3p0-3p0--------------|-|
D:---------------2-2—-2~---|-|
A:---------------2-2—-2~---|-|
E:---------------0-0—-0~---|-|

when you can make the tab better, plz send it to me :)

            
            
Suggest correction
Creating personal tab
Creating personal tab
You can edit any tab online and save it as your Personal.

You can edit, replace or remove any tab part or add personal notes – all changes will be seen only by you.

Personal tabs can be accessed anytime from any device, even offline.
Learn more »
comments
print report bad tab
2 comments total.
0 reply
eagles28 10 Jan 21, 2010 02:38 PM

Nice. Im amazed how this guy plays. If you can tab any more of his songs that would be awesome. Thanx man.

0 reply
Ebbeboy 42 Sep 04, 2011 08:27 AM

I just love Igor, he can really make you feel your emotions with his guitar. Any chance that you could tab his cover of "Love The Way You Lie"?

guest
You may want to rate the tab now too:
select rating
Wanna post a correction for this tab? Suggest correction