Oops, an error
Loading. Please wait.

Gentlemen Of Fortune Theme Tab

version 1
version 1

Acoustic

  • Unable to find this tab so I thought I would make one to be able to contribute.

Interactive

34 views 9 this week
no commentswrite comment
1 2 3 4 5
3 more votes to show rating
add to favorites
launch autoscroll
font size
0
reset
how to read this tab
guitar tuner
Autoscroll
slow
fast
+/-
esc
set tempo
stop
Help us to improve Ultimate-Guitar.com Take our survey!
×
Author
Difficulty
intermediate
About this tab version
Unable to find this tab so I thought I would make one to be able to contribute. Was this info helpful? Yes No
[Intro]
    Q    Q    Q    Q       E  S S E  S S E  S S E  S S    E  S S E  S S E  S S E  E   
E|----------------------|------------------------------|-----------------------------|
B|----------------------|------------------------------|--------------------------5--|
G|----------------------|-------5------5------5------5-|-------5------5------5-------|
D|-----------------3----|-----7------7------7------7---|-----7------7------7---------|
A|------------3----3----|--0------7------0------7------|--0------7------0------7-----|
E|--1----1----1----1----|------------------------------|-----------------------------|


    E  E  E  S S E  E  E  E     E  E  E  S S E  E  E  E     E  S  S E  E  E  S  S E  E   
E|---------------------------|---------------------------|--8--7h-8-5-------------------|
B|--6--5-------5----------5--|--6--5-------5----------5--|-------------5--8--6h-8-5--6--|
G|-----------8---5-----------|-----------8---4-----------|------------------------------|
D|------------------7--------|------------------6--------|------------------------------|
A|--0-----7------0-----7-----|--0-----7------------7-----|--0-------------0-------------|
E|---------------------------|---------------0-----------|------------------------------|


    E  E  E  S S E  S S E  S S    E  S  S E  E  E  S S E  S S    E  S  S E  E  E  S S E  S S  
E|-----------------------------|------------------------------|------------------------------|
B|--5--------------------------|--8--6h-8-5--6----------------|--8--6h-8-5--6----------------|
G|-----7-------7------7------7-|----------------7----7------7-|----------------7----7------7-|
D|--0--------7------7------7---|-------------------7------7---|-------------------7------7---|
A|--------5------0------5------|--5-------------5------0------|--5-------------5------0------|
E|-----------------------------|------------------------------|------------------------------|


    E  S  S E  E  E  S  S E  E     E  E  E  S S E  S S E  E     E  E  E  S S E  E  E  E   
E|------------------------------|----------------------------|---------------------------|
B|--8--6h-8-5--3--6--5h-6-3--0--|--6--5-------------------5--|--6--5-------5----------5--|
G|------------------------------|-------------4------4-------|-----------8---5-----------|
D|------------------------------|-----------6------6---------|------------------7--------|
A|--5-------------5-------------|--------7-------------7-----|--0-----7------0-----7-----|
E|------------------------------|--0------------0------------|---------------------------|


    E  E  E  S S E  E  E  E     E  E  E  S S E  S  S E  E     E  E  E  S S E  S S E   E   
E|---------------------------|-----------------------------|-----------------------------|
B|--6--5-------5----------5--|--6--5-------5-8--6h-8-5--6--|--5----------------------10--|
G|-----------8---4-----------|-----------8-----------------|-----7-------7------7--------|
D|------------------6--------|-----------------------------|--0--------7------7----------|
A|--0-----7------------7-----|--0-----7------0-------------|--------5------0------5------|
E|---------------0-----------|-----------------------------|-----------------------------|


    E   S  S  S S  S   S  E    S  S  E  S  S     E  S  S   S S  S   S  E   S  S  E  S  S  
E|--10-----------------------|------------------10--------|-------------------------------|
B|---------10---13-12h-13-12-|----10-------10----------10-|--13-12h-13-12-----10-------10-|
G|------10-------------------|-10-------10----------10----|----------------10-------10----|
D|--0---------------------0--|------------------0---------|------------0------------------|
A|------------0--------------|-------0--------------------|0---------------------0--------|
E|---------------------------|----------------------------|-------------------------------|

                                                             
     E  E   E  E  E  E  E  E     E  E  E  S S E  S S E  E     Q    Q    Q    Q     
E|--10--8--10--8--8--7--------|--7--5----------------------|----------------------|
B|--10------------9-----9-----|----------------------------|----------------------|
G|--10------------9--------9--|-------------5------5-------|----------------------|
D|---0------------------------|-----------7------7---------|-----------------3----|
A|----------------------------|--0-----0------7------0--L--|--L---------3----3----|
E|----------------0-----------|----------------------------|-------1----1----1----|


     E S S  E S S  E S S  E S S      E  S S E  S S E  S S E  E     E  E  E  S S E  E  E  E   
E|--------------------------------|-----------------------------|---------------------------|
B|--------------------------------|--------------------------5--|--6--5-------5----------5--|
G|-------5------5------5------5---|-------5------5------5-------|-----------8---5-----------|
D|-----7------7------7------7-----|-----7------7------7---------|------------------7--------|
A|---0------7------0------7-------|--0------7------0------7-----|--0-----7------0-----7-----|
E|--------------------------------|-----------------------------|---------------------------|


    E  E  E  S S E  E  E  E     E  S  S E  E  E  S  S E  E     E  E  E  S S E  S S E  S S  
E|---------------------------|--8--7h-8-5-------------------|-----------------------------|
B|--6--5-------5----------5--|-------------5--8--6h-8-5--6--|--5--------------------------|
G|-----------8---4-----------|------------------------------|-----7-------7------7------7-|
D|------------------6--------|------------------------------|--0--------7------7------7---|
A|--0-----7------------7-----|--0-------------0-------------|--------5------0------5------|
E|---------------0-----------|------------------------------|-----------------------------|


    E  S  S E  E  E  S S E  S S    E  S  S E  E  E  S S E  S S    E  S  S E  E  E  S  S E  E   
E|------------------------------|------------------------------|------------------------------|
B|--8--6h-8-5--6----------------|--8--6h-8-5--6----------------|--8--6h-8-5--3--6--5h-6-3--0--|
G|----------------7----7------7-|----------------7----7------7-|------------------------------|
D|-------------------7------7---|-------------------7------7---|------------------------------|
A|--5-------------5------0------|--5-------------5------0------|--5-------------5-------------|
E|------------------------------|------------------------------|------------------------------|


    E  E  E  S S E  S S E  E     E  E  E  S S E  E  E  E     E  E  E  S S E  E  E  E   
E|----------------------------|---------------------------|---------------------------|
B|--6--5-------------------5--|--6--5-------5----------5--|--6--5-------5----------5--|
G|-------------4------4-------|-----------8---5-----------|-----------8---4-----------|
D|-----------6------6---------|------------------7--------|------------------6--------|
A|--------7-------------7-----|--0-----7------0-----7-----|--0-----7------------7-----|
E|--0------------0------------|---------------------------|---------------0-----------|


    E  E  E  S S E  S  S E  E     E  E  E  S S E  S S E   E   
E|-----------------------------|-----------------------------|
B|--6--5-------5-8--6h-8-5--6--|--5----------------------10--|
G|-----------8-----------------|-----7-------7------7--------|
D|-----------------------------|--0--------7------7----------|
A|--0-----7------0-------------|--------5------0------5------|
E|-----------------------------|-----------------------------|


    E   S  S  S S  S   S  E   S  S  E  S  S     E   S  S  S S  S   S  E   S  S  E  S  S  
E|--10-----------------------|------------------10--------|-------------------------------|
B|---------10---13-12h-13-12-|----10-------10----------10-|--13-12h-13-12-----10-------10-|
G|------10-------------------|-10-------10----------10----|----------------10-------10----|
D|--0---------------------0--|------------------0---------|------------0------------------|
A|------------0--------------|-------0--------------------|0---------------------0--------|
E|---------------------------|----------------------------|-------------------------------|

                                                                                      
     E  E   E  E  E  E  E  E     E  E  E  S S E  S S E  E     E  E  E  S S E  S S E  E   
E|--10--8--10--8--8--7--------|--7--5----------------------|--7--5----------------------|
B|--10------------9-----9-----|----------------------------|----------------------------|
G|--10------------9--------9--|-------------5------5-------|-------------5------5-------|
D|---0------------------------|-----------7------7---------|-----------7------7---------|
A|----------------------------|--0-----0------7------0-----|--0-----0------7------0-----|
E|----------------0-----------|----------------------------|----------------------------|


    E  E  E  S S E  S S E  E     E  E  E  S S E  S S E  E     E  E  E  S S E  S S E  E   
E|--7--5----------------------|--7--5----------------------|--7--5----------------------|
B|----------------------------|----------------------------|----------------------------|
G|-------------5------5-------|-------------5------5-------|-------------5------5-------|
D|-----------7------7---------|-----------7------7---------|-----------7------7---------|
A|--0-----0------7------0-----|--0-----0------7------0-----|--0-----0------7------0-----|
E|----------------------------|----------------------------|----------------------------|


    E  E  E  S S E  S S E  E          
E|--7--5----------------------|-----||
B|----------------------------|-----||
G|-------------5------5-------|-----||
D|-----------7------7---------|-----||
A|--0-----0------7------0-----|-----||
E|----------------------------|-----||




Duration Legend
---------------
Q - quarter
E - 8th
S - 16th


Tablature Legend
----------------
h - hammer on
p - pull off
Suggest correction
Give kudos to tab author, rate the tab!
1 2 3 4 5
comments
print report bad tab
guest
You may want to rate the tab now too:
select rating
Wanna post a correction for this tab? Suggest correction