Oops, an error
Loading. Please wait.

Parking Lot Palms tab

by Iji
70 views 1 this week
no commentswrite comment
1 2 3 4 5
2 more votes to show rating
add to favorites
×
Save as Personal and add changes to this tab that will be seen only by you. Learn more ›
×
You can save this tab as Personal to edit and correct it or add notes. All changes will be seen only by you. Learn more »
launch autoscroll
font size
0
reset
how to read this tab
guitar tuner
edit
Autoscroll
slow
fast
+/-
esc
set tempo
stop
Author
-------------------------------------------------------------------------------
                           Parking Lot Palm - Iji
-------------------------------------------------------------------------------

Tuning: Standard

Guitar One:
e|---------------------------------------------------------------------------|
B|---------------------------------------------------------------------------|
G|---------------------------------------------------------------------------|
D|------4-6------------------------------------------------------------------|
A|----7----------------------------------------------------------------------| 4x
E|--7------------------------------------------------------------------------|

Guitar Two:
e|---------------------------------------------------------------------------|
B|---------------------------------------------------------------------------|
G|--------------8---9--------------------------------------------------------|
D|---------------------------------------------------------------------------|
A|---------------------------------------------------------------------------| 4x
E|---------------------------------------------------------------------------|

Guitar One:
e|---------------------------------------------------------------------------|
B|---------------------------------------------------------------------------|
G|---------------------------------------------------------------------------|
D|------4-6------------------------------------------------------------------|
A|----7----------------------------------------------------------------------| 4x
E|--7------------------------------------------------------------------------|

Guitar Two:
e|---------------------------------------------------------------------------|
B|---------------------------------------------------------------------------|
G|--------------8---9--------------------------------------------------------|
D|---------------------------------------------------------------------------|
A|---------------------------------------------------------------------------| 4x
E|---------------------------------------------------------------------------|

Guitar One:
e|---------------------------------------------------------------------------|
B|---------------------------------------------------------------------------|
G|----------9-8-6---------------------------9-8-6----------------------------|
D|----------------9-------------------------------9--------------------------|
A|---------------------------------------------------------------------------|
E|---------------------------------------------------------------------------|

Guitar Two:
e|--7-----7----------7-----7--------7----7-----------------------------------|
B|--9-----9----------9-----7--------9----9-----------------------------------|
G|--9-----9----------9-----8--------9----9-----------------------------------|
D|--9-----9----------9-----9--------9----9-----------------------------------|
A|--7-----7----------7-----9--------7----7-----------------------------------|
E|--7-----7----------7-----7--------7----7-----------------------------------|

Guitar One:
e|---------------------------------------------------------------------------|
B|---------------------------------------------------------------------------|
G|---------------------------------------------------------------------------|
D|---------------------------------------------------------------------------|
A|---------------------------------------------------------------------------|
E|---------------------------------------------------------------------------|

Guitar Two:
e|---------------------------------------------------------------------------|
B|---------------------------------------------------------------------------|
G|---------------------------------------------------------------------------|
D|---------------------------------------------------------------------------|
A|---------------------------------------------------------------------------|
E|---------------------------------------------------------------------------|

Guitar One:
e|---------------------------------------------------------------------------|
B|---------------------------------------------------------------------------|
G|---------------------------------------------------------------------------|
D|------4-6------------------------------------------------------------------|
A|----7----------------------------------------------------------------------| 4x
E|--7------------------------------------------------------------------------|

Guitar Two:
e|---------------------------------------------------------------------------|
B|---------------------------------------------------------------------------|
G|--------------8---9--------------------------------------------------------|
D|---------------------------------------------------------------------------|
A|---------------------------------------------------------------------------| 4x
E|---------------------------------------------------------------------------|

Guitar One:
e|---------------------------------------------------------------------------|
B|---------------------------------------------------------------------------|
G|-----1----9-8-6----------------------1----9-8-6----------------------------|
D|-----2----------9--------------------2----------9--------------------------|
A|-----2-------------------------------2-------------------------------------|
E|---------------------------------------------------------------------------|

Guitar Two:
e|--7-----7----------7-----7--------7----7-----------------------------------|
B|--9-----9----------9-----7--------9----9-----------------------------------|
G|--9-----9----------9-----8--------9----9-----------------------------------|
D|--9-----9----------9-----9--------9----9-----------------------------------|
A|--7-----7----------7-----9--------7----7-----------------------------------|
E|--7-----7----------7-----7--------7----7-----------------------------------|

Guitar One:
e|---------------------------------------------------------------------------|
B|---------------------------------------------------------------------------|
G|---------------------------------------------------------------------------|
D|------4-6------------------------------------------------------------------|
A|----7----------------------------------------------------------------------|
E|--7------------------------------------------------------------------------|

Guitar Two:
e|---------------------------------------------------------------------------|
B|---------------------------------------------------------------------------|
G|--------------8---9--------------------------------------------------------|
D|---------------------------------------------------------------------------|
A|---------------------------------------------------------------------------|
E|---------------------------------------------------------------------------|

Guitar One:
e|---------------------------------------------------------------------------|
B|---------------------------------------------------------------------------|
G|---------------------------------------------------------------------------|
D|------4-6-4----------------------------------------------------------------|
A|----7----------------------------------------------------------------------|
E|--7---------7--------------------------------------------------------------|

Guitar Two:
e|---------------------------------------------------------------------------|
B|---------------9p7---------------------------------------------------------|
G|--------------------9--8---------------------------------------------------|
D|---------------------------------------------------------------------------|
A|---------------------------------------------------------------------------|
E|---------------------------------------------------------------------------|

Guitar One:
e|---------------------------------------------------------------------------|
B|---------------------------------------------------------------------------|
G|---------------------------------------------------------------------------|
D|------4-6------------------------------------------------------------------|
A|----7----------------------------------------------------------------------|
E|--7------------------------------------------------------------------------|

Guitar Two:
e|---------------------------------------------------------------------------|
B|--------------7---9--------------------------------------------------------|
G|---------------------------------------------------------------------------|
D|---------------------------------------------------------------------------|
A|---------------------------------------------------------------------------|
E|---------------------------------------------------------------------------|

Guitar One:
e|---------------------------------------------------------------------------|
B|---------------------------------------------------------------------------|
G|---------------------------------------------------------------------------|
D|------4-6-4----------------------------------------------------------------|
A|----7----------------------------------------------------------------------|
E|--7---------7--------------------------------------------------------------|

Guitar Two:
e|---------------------------------------------------------------------------|
B|-------------------7-------------------------------------------------------|
G|--------------8h9-----9----------------------------------------------------|
D|---------------------------------------------------------------------------|
A|---------------------------------------------------------------------------|
E|---------------------------------------------------------------------------|

Guitar One:
e|---------------------------------------------------------------------------|
B|---------------------------------------------------------------------------|
G|---------------------------------------------------------------------------|
D|------4-6------------------------------------------------------------------|
A|----7----------------------------------------------------------------------| 4x
E|--7------------------------------------------------------------------------|

Guitar Two:
e|---------------------------------------------------------------------------|
B|---------------------------------------------------------------------------|
G|--------------8---9--------------------------------------------------------|
D|---------------------------------------------------------------------------|
A|---------------------------------------------------------------------------| 4x
E|---------------------------------------------------------------------------|

Guitar One:
e|---------------------------------------------------------------------------|
B|---------------------------------------------------------------------------|
G|-----1----9-8-6----------------------1----9-8-6----------------------------|
D|-----2----------9--------------------2----------9--------------------------|
A|-----2-------------------------------2-------------------------------------|
E|---------------------------------------------------------------------------|

Guitar Two:
e|--7-----7----------7-----7--------7----7-----------------------------------|
B|--9-----9----------9-----7--------9----9-----------------------------------|
G|--9-----9----------9-----8--------9----9-----------------------------------|
D|--9-----9----------9-----9--------9----9-----------------------------------|
A|--7-----7----------7-----9--------7----7-----------------------------------|
E|--7-----7----------7-----7--------7----7-----------------------------------|

Guitar One:
e|---------------------------------------------------------------------------|
B|---------------------------------------------------------------------------|
G|---------------------------------------------------------------------------|
D|------4-6------------------------------------------------------------------|
A|----7----------------------------------------------------------------------|
E|--7------------------------------------------------------------------------|

Guitar Two:
e|---------------------------------------------------------------------------|
B|---------------------------------------------------------------------------|
G|--------------8---9--------------------------------------------------------|
D|---------------------------------------------------------------------------|
A|---------------------------------------------------------------------------|
E|---------------------------------------------------------------------------|

Guitar One:
e|---------------------------------------------------------------------------|
B|---------------------------------------------------------------------------|
G|---------------------------------------------------------------------------|
D|------4-6-4----------------------------------------------------------------|
A|----7----------------------------------------------------------------------|
E|--7---------7--------------------------------------------------------------|

Guitar Two:
e|---------------------------------------------------------------------------|
B|--------------7---9--------------------------------------------------------|
G|---------------------------------------------------------------------------|
D|---------------------------------------------------------------------------|
A|---------------------------------------------------------------------------|
E|---------------------------------------------------------------------------|

Guitar One:
e|---------------------------------------------------------------------------|
B|---------------------------------------------------------------------------|
G|---------------------------------------------------------------------------|
D|------4-6------------------------------------------------------------------|
A|----7----------------------------------------------------------------------|
E|--7------------------------------------------------------------------------|

Guitar Two:
e|---------------------------------------------------------------------------|
B|---------------------------------------------------------------------------|
G|--------------8---9--------------------------------------------------------|
D|---------------------------------------------------------------------------|
A|---------------------------------------------------------------------------|
E|---------------------------------------------------------------------------|

Guitar One:
e|---------------------------------------------------------------------------|
B|---------------------------------------------------------------------------|
G|---------------------------------------------------------------------------|
D|------4-6-4----------------------------------------------------------------|
A|----7----------------------------------------------------------------------|
E|--7---------7--------------------------------------------------------------|

Guitar Two:
e|---------------------------------------------------------------------------|
B|--------------7---9--------------------------------------------------------|
G|---------------------------------------------------------------------------|
D|---------------------------------------------------------------------------|
A|---------------------------------------------------------------------------|
E|---------------------------------------------------------------------------|

Guitar One:
e|--7------7--4-----4--------------------------------------------------------|
B|--9------9--4-----5--------------------------------------------------------|
G|--9------9--6-----6--------------------------------------------------------|
D|--9------9--6-----6--------------------------------------------------------|
A|--7------7--4-----4--------------------------------------------------------| 6x
E|--7------7--4-----4--------------------------------------------------------|

Guitar Two:
e|--7------7--4-----4--------------------------------------------------------|
B|--9------9--4-----5--------------------------------------------------------|
G|--9------9--6-----6--------------------------------------------------------|
D|--9------9--6-----6--------------------------------------------------------|
A|--7------7--4-----4--------------------------------------------------------| 6x
E|--7------7--4-----4--------------------------------------------------------|


Guitar One:
e|---------------------------------------------------------------------------|
B|---------------------------------------------------------------------------|
G|---------------------------------------------------------------------------|
D|------4-6------------------------------------------------------------------|
A|----7----------------------------------------------------------------------|
E|--7------------------------------------------------------------------------|

Guitar Two:
e|--2-------------------------------------------------------------------------|
B|--3-------------------------------------------------------------------------|
G|--4-------------------------------------------------------------------------|
D|--4-------------------------------------------------------------------------|
A|--2-------------------------------------------------------------------------|
E|--2-------------------------------------------------------------------------|

Guitar One:
e|---------------------------------------------------------------------------|
B|---------------------------------------------------------------------------|
G|---------------------------------------------------------------------------|
D|------4-6-4----------------------------------------------------------------|
A|----7----------------------------------------------------------------------|
E|--7---------7--------------------------------------------------------------|

Guitar Two:
e|--2-------------------------------------------------------------------------|
B|--3-------------------------------------------------------------------------|
G|--4-------------------------------------------------------------------------|
D|--4-------------------------------------------------------------------------|
A|--2-------------------------------------------------------------------------|
E|--2-------------------------------------------------------------------------|

Guitar One:
e|--7-----6------4-----2-----------------------------------------------------|
B|--9-----7------5-----4-----------------------------------------------------|
G|--9-----8------6-----4-----------------------------------------------------|
D|--9-----8------6-----4-----------------------------------------------------|
A|--7-----6------4-----2-----------------------------------------------------| 2x
E|--7-----6------4-----2-----------------------------------------------------|

Guitar Two:
e|---------------------------------------------------------------------------|
B|---------------------------------------------------------------------------|
G|--9---9-8----8-6---6-4-----------------------------------------------------|
D|---------------------------------------------------------------------------|
A|---------------------------------------------------------------------------| 2x
E|---------------------------------------------------------------------------|

Guitar One:
e|---------------------------------------------------------------------------|
B|--12-------12-------12-----------------------------------------------------|
G|-----11-11----11-11----11--------------------------------------------------|
D|---------------------------------------------------------------------------|
A|---------------------------------------------------------------------------| 20x
E|---------------------------------------------------------------------------|

Guitar Two:
e|--7-----6------4-----2-----------------------------------------------------|
B|--9-----7------5-----4-----------------------------------------------------|
G|--9-----8------6-----4-----------------------------------------------------|
D|--9-----8------6-----4-----------------------------------------------------|
A|--7-----6------4-----2-----------------------------------------------------| 5x
E|--7-----6------4-----2-----------------------------------------------------|

            
            
Suggest correction
Creating personal tab
Creating personal tab
You can edit any tab online and save it as your Personal.

You can edit, replace or remove any tab part or add personal notes – all changes will be seen only by you.

Personal tabs can be accessed anytime from any device, even offline.
Learn more »
Give kudos to tab author, rate the tab!
1 2 3 4 5
comments
print report bad tab
guest
You may want to rate the tab now too:
select rating
Wanna post a correction for this tab? Suggest correction