Oops, an error
Loading. Please wait.

Bold Soul Sister Tab

493 views 378 this week
no commentswrite comment
1 2 3 4 5
1 last vote to show rating
add to favorites
launch autoscroll
font size
0
reset
how to read this tab
guitar tuner
Autoscroll
slow
fast
+/-
esc
set tempo
stop
Help us to improve Ultimate-Guitar.com Take our survey!
×
Author
Difficulty
intermediate
(/) Slide Up  (\) Slide Down

Tuning: E standard (EADGBe)
The chords are simplified.


Main Riff

E|-----------------------------------------------------------|
B|-----------------------------------------------------------|
G|-----------------------------------------------------------|
D|--------------4-----------------8--8--7--8--8--7--8--8--7--|
A|--6--4-----4-----4--6--6--4--6--6--6--5--6--6--5--6--6--5--|
E|--------6-----------------2--4-----------------------------|

Verse Riff

E|--------------------------------------------|--------------------------------------------------|
B|--------------------------------------------|--------------------------------------------------|
G|--8--6-----------6-----8--6-----------6-----|--8--6--------------6-----8--6--------------6-----|
D|--------8--6--8--------------8--6--8-----4--|--------8--8--6--8--------------8--8--6--8-----4--|
A|--------------------6-----------------------|-----------------------6--------------------------|
E|--------------------------------------------|--------------------------------------------------|

Solo/Improvisation

E|----------11----------|---------------------------------|
B|--11--13------13--11--|--14/16--16--14------------------|
G|----------------------|-----------------15--13--11------|
D|----------------------|-----------------------------13--|
A|----------------------|---------------------------------|
E|----------------------|---------------------------------|

                                                        
Suggest correction
Give kudos to tab author, rate the tab!
1 2 3 4 5
comments
print report bad tab
guest
You may want to rate the tab now too:
select rating
Wanna post a correction for this tab? Suggest correction