Oops, an error
Loading. Please wait.

Proud Mary Bass Tab

version 1
version 1

Whole song

Interactive

10,401 views 72 this week
no commentswrite comment
1 2 3 4 5
x 6
add to favorites
launch autoscroll
font size
0
reset
guitar tuner
×
Best way to learn
"Proud Mary"
Autoscroll
slow
fast
+/-
esc
set tempo
stop
Author
Difficulty
  follow
novice
[Intro]

G|---------|
D|---------|
A|---5--55-| Repeat several times
E|-5-------|

[Variation 1]

G|--------------------|
D|--------------------|
A|---5--2-3-4-5---5-5-|
E|-5------------5-----|

[Variation 2]

G|---------------------------------------------------|
D|---------------------------------------------------|
A|---5----------------------0-1-2--222---------------|
E|-5---2--3--4--55-55-5-5-5------------3-3-3-4-5-----|

[Bridge]

G|----------------------------------------------------|
D|----------------------------------------------------|
A|-33---33---33---------------5-----------------------|
E|----5----5----5-3-1-1-0-1-3-------------------------|
Suggest correction
comments
print report bad tab
guest
You may want to rate the tab now too:
select rating
Wanna post a correction for this tab? Suggest correction