Oops, an error
Loading. Please wait.

Blue Bird Tab

version 2
version 2

Whole song

Interactive

7,580 views 12 this week
no commentswrite comment
1 2 3 4 5
accurate
x 4
add to favorites
launch autoscroll
font size
0
reset
how to read this tab
guitar tuner
Tab Pro tools
  • play this tab
  • loop segment
  • change instrument
  • show fretboard
  • metronome
×
Best way to learn
"Blue Bird"
Autoscroll
slow
fast
+/-
esc
set tempo
stop
Tabbed by ear, by sonicx2218
Tuning: Standard

e|-----2---4---5---4---2-------------2---4------5---7---5---7---9------------|
B|--2----------------------------2-------------------------------------------|
G|---------------------------------------------------------------------------|
D|---------------------------------------------------------------------------|
A|---------------------------------------------------------------------------|
E|---------------------------------------------------------------------------|


   |      Habatai-ta-ra   |      |        modorenai to ite          |    

e|-----2---4---5---4---2----------2---9---7---2---9---7---0---0---2---2------|
B|--2------------------------------------------------------------------------|
G|---------------------------------------------------------------------------|
D|---------------------------------------------------------------------------|
A|---------------------------------------------------------------------------|
E|---------------------------------------------------------------------------|

   |   mezashita no wa    |       |      aoi aoi ano sora               |



( Solo )
e|----5---4---7---9---7---5----5---4---0--0--0-h-2--0--0--2---2--------------|
B|---------------------------------------------------------------------------|
G|---------------------------------------------------------------------------|
D|---------------------------------------------------------------------------|
A|---------------------------------------------------------------------------|
E|---------------------------------------------------------------------------|
(end solo )


(verse 1)

e|------2---4---5-------5---4---2---0---2---------------------------------0--|
B|--2---------------2--------------------------0---2-------2--2------3-------|
G|-----------------------------------------2---------------------------------|
D|---------------------------------------------------------------------------|
A|---------------------------------------------------------------------------|
E|---------------------------------------------------------------------------|
         
   |        kanashimi wo mada oboerarezu             |  | setsunasawa                   

e|--2---0---0--0------2---4---5---4-------------2---4---5--------5---4---2--0|
B|------------------------------------------2---------------2----------------|
G|---------------------------------------------------------------------------|
D|---------------------------------------------------------------------------|
A|---------------------------------------------------------------------------|
E|---------------------------------------------------------------------------|



     ima tsukami hajimeta           |   |     anata e to idaku kono 



e|---2-------------------------------5---4---2---0---0---2---2---------------|
B|-----------0---2----2-----2---3--------------------------------------------|
G|-------2-------------------------------------------------------------------|
D|---------------------------------------------------------------------------|
A|---------------------------------------------------------------------------|
E|---------------------------------------------------------------------------|

     kanjou mo    | |          ima kotoba ni kawa-ateku         |
( end verse 1 )


( Bridge )

e|---2--2---4---5-----5--4--5---4----4--4---5---7---7---5---4---2-----2---5--|
B|---------------------------------------------------------------------------|
G|---------------------------------------------------------------------------|
D|---------------------------------------------------------------------------|
A|---------------------------------------------------------------------------|
E|---------------------------------------------------------------------------|

  | michi naru               sekai no yume kara mezamete         | |   kono 



e|---7---9-----2---5---7---9-----9---12---10---9~----------------------------|
B|---------------------------------------------------------------------------|
G|---------------------------------------------------------------------------|
D|---------------------------------------------------------------------------|
A|---------------------------------------------------------------------------|
E|---------------------------------------------------------------------------|

          hane wo hiroge tobi datsu                 |
( end bridge)


( Chorus )

e|-----2---4---5---4---2-------------2---4---5---5---7---5---7---9-----------|
B|--2----------------------------2-------------------------------------------|
G|---------------------------------------------------------------------------|
D|---------------------------------------------------------------------------|
A|---------------------------------------------------------------------------|
E|---------------------------------------------------------------------------|

   |      Habatai-ta-ra   |      |        modorenai to ite          | 

e|-----2---4---5---4---2----------2---9---7---2---9---7---0---0---2---2------|
B|--2------------------------------------------------------------------------|
G|---------------------------------------------------------------------------|
D|---------------------------------------------------------------------------|
A|---------------------------------------------------------------------------|
E|---------------------------------------------------------------------------|

   |   mezashita no wa    |       |      aoi aoi ano sora               |


e|-----2---4---5---4---2-------------2---4---5---5---7---5---7---9-----------|
B|--2----------------------------2-------------------------------------------|
G|---------------------------------------------------------------------------|
D|---------------------------------------------------------------------------|
A|---------------------------------------------------------------------------|
E|---------------------------------------------------------------------------|

  |   tsukinoketara     |   |          mitsukaru doushite             |

e|-----2---4---5---4---2----------2---9---7---2---9---7---0---0---2---2------|
B|--2------------------------------------------------------------------------|
G|---------------------------------------------------------------------------|
D|---------------------------------------------------------------------------|
A|---------------------------------------------------------------------------|
E|---------------------------------------------------------------------------|

    | furikuru hodo |            |       aoi aoi ano sora       |
  
e|----2---9---7---2---9---7---0---0---2---2-------------2---9---7---2---9--7-|
B|---------------------------------------------------------------------------|
G|---------------------------------------------------------------------------|
D|---------------------------------------------------------------------------|
A|---------------------------------------------------------------------------|
E|---------------------------------------------------------------------------|

   |       aoi aoi ano sora     |                    |   aoi    aoi     

e|----7---0---0---2---2------------------------------------------------------|
B|---------------------------------------------------------------------------|
G|---------------------------------------------------------------------------|
D|---------------------------------------------------------------------------|
A|---------------------------------------------------------------------------|
E|---------------------------------------------------------------------------|
  |   ano sora~       |

(ending solo)
e|--5---4---7---9---7----5----5---4---0--0--0h---0--0--2---4----4--------5~--|
B|---------------------------------------------------------------------------|
G|---------------------------------------------------------------------------|
D|---------------------------------------------------------------------------|
A|---------------------------------------------------------------------------|
E|---------------------------------------------------------------------------|
comments
print report bad tab
I want to post or [tab]
guest
You may want to rate the tab now too:
select rating
Please do not post tabs as comments. Select "correction" instead!