Oops, an error
Loading. Please wait.

Donkey Song Tab

481 views 6 this week
no commentswrite comment
1 2 3 4 5
3 more votes to show rating
add to favorites
launch autoscroll
font size
0
reset
how to read this tab
guitar tuner
Autoscroll
slow
fast
+/-
esc
set tempo
stop
Help us to improve Ultimate-Guitar.com Take our survey!
×
Author
Difficulty
novice
Verse

(You'll never see another like me...)
e|----------|----------|
B|----------|----------|
G|------5-5-|------5-5-|
D|-5-5--5-5-|-5-5--5-5-|
A|-5-5--3-3-|-5-5--3-3-|
E|-3-3------|-3-3------|

Pre Chorus

(Just tryin' to find some...)
e|--------------10-10--8--8--|
B|-12-12-12-12--10-10--8--8--|
G|-12-12-12-12--11-11--9--9--|
D|-12-12-12-12--12-12--10-10-|
A|-10-10-10-10--12-12--10-10-|
E|--------------10-10--8--8--|

Chorus

(I - I am the ill kid...)
e|--------------------|
B|--------------------|
G|------5-5--7-7--5-5-|
D|-5-5--5-5--7-7--5-5-|
A|-5-5--3-3--5-5--3-3-|
E|-3-3----------------|

Bridge 1/Outro

e|-----3-------------------------------|
B|-------3-----5-----8p7-----------5---|
G|---4-----------5-------7-----------5-|
D|-5---------5------7------7-----5-----|
A|---------3-------5-------(5)-3-------|
E|-------------------------------------|

Bridge 2

(It's the ill, it's the ill...)
e|-3-3--1-1-|
B|-3-3--1-1-|
G|-4-4--2-2-|
D|-5-5------|
A|----------|
E|----------|
Suggest correction
Give kudos to tab author, rate the tab!
1 2 3 4 5
comments
print report bad tab
guest
You may want to rate the tab now too:
select rating
Wanna post a correction for this tab? Suggest correction