Oops, an error
Loading. Please wait.

Unreal Tab

version 2
version 2

Whole song

Interactive

2,196 views 1 this week
no commentswrite comment
1 2 3 4 5
please rate
add to favorites
launch autoscroll
font size
0
reset
how to read this tab
guitar tuner
Autoscroll
slow
fast
+/-
esc
set tempo
stop
Help us to improve Ultimate-Guitar.com Take our survey!
×
Author
Band : Ill Nino
Song : Unreal
Album : Revoulution/Revolucion ( 2003 roadrunner Records )

Guitar I - Ahrue {CGCFAD}  Guitar II - Jardel {CGCFAD}

Intro: after drum beat - Both Guitars

D|------------------------|
A|------------------------|
F|------------------------|
C|-3-2~~-------3-2--------|
G|-3-2~~-------3-2--------|
C|-3-2~~-------3-2--------|

D|----------------------|
A|----------------------|
F|----------------------|
C|----------------------| x 4 
G|----5---5---5---5-----|
C|-3-2-3-2-3-2-3-2------|

Verse:

D|------------------------------|
A|------------------------------|
F|------------------------------|
C|-0-0-3-2~~~~~--0-0-3-2~~~~----| x 2 then play
G|-0-0-3-2~~~~~--0-0-3-2~~~~----|
C|-0-0-3-2~~~~~--0-0-3-2~~~~----|

D|---------------------------|
A|---------------------------|
F|---------------------------|
C|----2----2----2------------| x 3 and on 4th time play
G|---------------------------|
C|-3-2--3-2--3-2--3-2-0------|

D|-----------------|
A|-----------------|
F|-----------------|
C|-----2------2----|
G|-----------------|
C|-3-2---3-2-------|

Fill:

D|-------------|
A|-------------|
F|-------------|
C|-333333333---|
G|-333333333---|
C|-333333333---|
   .........

Chorus:

Both Guitars

D|------------------------------------|--------------|
A|------------------------------------|--------------|
F|------------------------------------|--------------|
C|-777777-33333333333-777777-333333333|-0-3-0-3-0----| 1st bar x 2
G|-777777-33333333333-777777-333333333|-0-3-0-3-0----|
C|-777777-33333333333-777777-333333333|-0-3-0-3-0----|

then...

Guitar I 

D|----------------------------------|
A|----------------------------------|
F|10-9-9-10-9-9-5-5-5-7-7-7-5-5-5---|
C|-x-x-x--x-x-x-x-x-x-x-x-x-x-x-x---| x 4
G|-8-7-7--8-7-7-3-3-3-5-5-5-3-3-3---|
C|----------------------------------|

Guitar II

D|--------------------------------------------------|
A|--------------------------------------------------|
F|--------------------------------------------------|
C|-777777-33333333333-777777-333333333-0-3-0-3-0----|
G|-777777-33333333333-777777-333333333-0-3-0-3-0----|
C|-777777-33333333333-777777-333333333-0-3-0-3-0----|

Verse:

D|----------------------|
A|----------------------|
F|----------------------|
C|----------------------| x 4 
G|----5---5---5---5-----|
C|-3-2-3-2-3-2-3-2------|

D|------------------------------|
A|------------------------------|
F|------------------------------|
C|-0-0-3-2~~~~~--0-0-3-2~~~~----| x 2 then play
G|-0-0-3-2~~~~~--0-0-3-2~~~~----|
C|-0-0-3-2~~~~~--0-0-3-2~~~~----|

D|---------------------------|
A|---------------------------|
F|---------------------------|
C|----2----2----2------------| x 3 and on 4th time play
G|---------------------------|
C|-3-2--3-2--3-2--3-2-0------|

D|-----------------|
A|-----------------|
F|-----------------|
C|-----2------2----|
G|-----------------|
C|-3-2---3-2-------|

Fill:

D|-------------|
A|-------------|
F|-------------|
C|-333333333---|
G|-333333333---|
C|-333333333---|
   .........

Chorus:

Both Guitars

D|------------------------------------|--------------|
A|------------------------------------|--------------|
F|------------------------------------|--------------|
C|-777777-33333333333-777777-333333333|-0-3-0-3-0----| 1st bar x 2
G|-777777-33333333333-777777-333333333|-0-3-0-3-0----|
C|-777777-33333333333-777777-333333333|-0-3-0-3-0----|

then...

Guitar I 

D|----------------------------------|
A|----------------------------------|
F|10-9-9-10-9-9-5-5-5-7-7-7-5-5-5---|
C|-x-x-x--x-x-x-x-x-x-x-x-x-x-x-x---| x 4
G|-8-7-7--8-7-7-3-3-3-5-5-5-3-3-3---|
C|----------------------------------|

Guitar II

D|--------------------------------------------------|
A|--------------------------------------------------|
F|--------------------------------------------------|
C|-777777-33333333333-777777-333333333-0-3-0-3-0----|
G|-777777-33333333333-777777-333333333-0-3-0-3-0----|
C|-777777-33333333333-777777-333333333-0-3-0-3-0----|

Breakdown:

D|-----------------------------------|
A|-----------------------------------|
F|-----------------------------------|
C|-----------------------------------|
G|-3~--2~------2~----2~~~~---2~~~~---|
C|-3~--2~------2~~---2~~~~---2~~~~---|

repeat chorus twice

outro:

D|-----|
A|-----|
F|-----|
C|-3~--|
G|-3~--|
C|-3~--|

Suggest correction
What's this?
You can suggest a correction to this tab. Community and Mods will review your correction and vote to approve or reject it.
comments
We did not receive enough feedback on this tab! Please rate:
print report bad tab
1 2 3 4 5
guest
You may want to rate the tab now too:
select rating
Please do not post tabs as comments. Select "correction" instead!