Oops, an error
Loading. Please wait.

Queridos Amigos Tab

version 1
version 1

Whole song

27 views 1 this week
no commentswrite comment
1 2 3 4 5
3 more votes to show rating
add to favorites
launch autoscroll
font size
0
reset
how to read this tab
guitar tuner
×
Best way to learn
"Queridos Amigos"
Autoscroll
slow
fast
+/-
esc
set tempo
stop
Esta es la verdadera introducción con el charango.
    Am                       C
e----12----------------8-----8--8--8-8-12-8-12-
A--------12-12--12---12------------------------
E----------------------------------------------
C----------------------------------------------
G----------------------------------------------


                                             E7    Am
e-10-12-10-12-8-8--10-12-10-8-5--------------------0--
A------------------------------------2-------0---------
E-----------------------------------------------------
C------------------------------------2-------0-----0--
G-----------------------------------------------------


Este es el final:

      Am
e----12----------------8-----
A--------12-12--12---12------
E---------------------------- x 3
C----------------------------
G----------------------------


Con mucho cariño para Sheily Karina.
Suggest correction
Give kudos to tab author, rate the tab!
1 2 3 4 5
comments
print report bad tab
guest
You may want to rate the tab now too:
select rating
Wanna post a correction for this tab? Suggest correction