Oops, an error
Loading. Please wait.

Toro Mata Tab

149 views 1 this week
no commentswrite comment
1 2 3 4 5
2 more votes to show rating
add to favorites
launch autoscroll
font size
0
reset
how to read this tab
guitar tuner
×
Best way to learn
"Toro Mata"
Autoscroll
slow
fast
+/-
esc
set tempo
stop
este es el intro de toromata para aquellos q no puedan sacarlo de
oido espero q les  2 formas para hacer el intro la primera
que les voy a poner ya casi no se usa pero tambien les voy a poner
la que mayormente se  recomiendo q la escuchen les voy a
poner 2 videos diferentes para q  aqui les va el intro

Primera forma(este es la q ya muy pocos la usan la difenrencia es
que este es mas lento y el otro es mas rapido)el video de esta forma
esta en: 

e ------------------------------------------
B ------------------------------------------
G ------------------------------------------
D -----3---2----------------3---2-----------
A ---3---5---3-5-2--------2---5---3-5-2-----
E -5--------------------4-------------------

Segunda forma(esta la usan casi todos como ya dje antes este es
mas rapido)el video de esta forma esta en :


e ----------------------------------
B ----------------------------------
G ----------------------------------
D -----5---4------------5---4-------
A ---5---7---5-7-4----4---7---5-7-4-
E -7----------------6---------------

solo para q no me reclamen,los videos no son mios solo
los puse para q se  espero q les alla gustado me despido.
Suggest correction
Give kudos to tab author, rate the tab!
1 2 3 4 5
comments
print report bad tab
guest
You may want to rate the tab now too:
select rating
Wanna post a correction for this tab? Suggest correction