Oops, an error
Loading. Please wait.

Angel Suicide Tab

version 1
version 1

Whole song

Interactive

196 views 1 this week
no commentswrite comment
1 2 3 4 5
please rate
add to favorites
launch autoscroll
font size
0
reset
how to read this tab
guitar tuner
Autoscroll
slow
fast
+/-
esc
set tempo
stop
Help us to improve Ultimate-Guitar.com Take our survey!
×
Contributor
Difficulty
intermediate
-------------------------------------------------------------------------------
                        Angel Suicide - Illectronic Rock
-------------------------------------------------------------------------------
Tabbed by: Martin Messner
Email: bigbonsai@hotmail.de
This Song On Youtube: http://www.youtube.com/watch?v=qP_GrHu9AUU

Tuning: E-Standard

//////////////////////////////////////////////
//                                          //
//  RATING THIS TAB TAKES ABOUT 5 SECONDS   //
//  AND HELPS ME TO IMPROVE MY WORK         //
//                                          //
//////////////////////////////////////////////

[Intro]
(by the way: seems like 6/8 measure)
e|---------0~~~~~-----0~~------1~~-------0~~~~~-----0~~-----1~~--||
B|---------1~~~~~-----1~~------3~~-------1~~~~~-----1~~-----3~~--||
G|-------2------------0~~----2---------2------------0~~---2------||
D|-----2------------2------0---------2------------2-----0--------||
A|---0------------3----------------0------------3----------------||
E|---------------------------------------------------------------||
                                                                  |
                                                                  |
e|---------------------------------------8~~~~~-8-----------8----||
B|------------------------------------------------8---8-10----10-||
G|--------------------------------------------------9-----10-----||
D|---------------------------------------------------------------||
A|---------------------------------------------------------------||
E|---------------------------------------------------------------||

The upper line is also played during the Verses


[Chorus]
e|--------0-------0-------3-------5-|
B|--------1-------1-------3-------6-|
G|------2-------0-------4-------7---| 4 times
D|----2-------2-------5-------7-----|
A|--0-------3---------------5-------|
E|------------------3---------------|


[Interlude]
e|-0-0-0-0-0-0-0-0-1-1-1-1-1-1-1-1-0-0-0-0-0-0-0-0-1-1-1-1-1-1-1-1-||
B|-1-1-1-1-1-1-1-1-1-1-1-1-1-1-1-1-1-1-1-1-1-1-1-1-1-1-1-1-1-1-1-1-||
G|-2-2-2-2-2-2-2-2-2-2-2-2-2-2-2-2-2-2-2-2-2-2-2-2-2-2-2-2-2-2-2-2-||
D|-2-2-2-2-2-2-2-2-3-3-3-3-3-3-3-3-2-2-2-2-2-2-2-2-3-3-3-3-3-3-3-3-||
A|-0-0-0-0-0-0-0-0-3-3-3-3-3-3-3-3-0-0-0-0-0-0-0-0-3-3-3-3-3-3-3-3-||
E|-----------------1-1-1-1-1-1-1-1-----------------1-1-1-1-1-1-1-1-||
                                                                    |
                                                                    |
                                                                    |
e|12-10--12-10----12-10--12-10-17t12-10--12-10-----12-10--12-10-17t||
B|--------------10-----------------------------10------------------||
G|-----------------------------------------------------------------||
D|-----------------------------------------------------------------||
A|-----------------------------------------------------------------||
E|-----------------------------------------------------------------||

e|-0-0-0-0-0-0-0-0-1-1-1-1-1-1-1-1-0-0-0-0-0-0-0-0-3-3-3-3-3-------||
B|-1-1-1-1-1-1-1-1-1-1-1-1-1-1-1-1-1-1-1-1-1-1-1-1-3-3-3-3-3-------||
G|-2-2-2-2-2-2-2-2-2-2-2-2-2-2-2-2-2-2-2-2-2-2-2-2-4-4-4-4-4-------||
D|-2-2-2-2-2-2-2-2-3-3-3-3-3-3-3-3-2-2-2-2-2-2-2-2-5-5-5-5-5-------||
A|-0-0-0-0-0-0-0-0-3-3-3-3-3-3-3-3-0-0-0-0-0-0-0-0-5-5-5-5-5-------||
E|-----------------1-1-1-1-1-1-1-1-----------------3-3-3-3-3-------||
                                                                    |
                                                                    |
                                                                    |
e|12-10--12-10----12-10--12-10-17t12-10--12-10---------------------||
B|-------------10------------------------------10-1313131312-------||
G|-----------------------------------------------------------------||
D|-----------------------------------------------------------------||
A|-----------------------------------------------------------------||
E|-----------------------------------------------------------------||

sry about the notation: all notes of the melody part of the interlude are between the 
and the 17th fret!
17t means to play this note as a trill!

Hope that helps a bit ;)

for all of you who just want to play it on the guitar check out for the chord tab!

Martin Messner
comments
We did not receive enough feedback on this tab! Please rate:
print report bad tab
1 2 3 4 5
I want to post or [tab]
guest
You may want to rate the tab now too:
select rating
Please do not post tabs as comments. Select "correction" instead!